Oops, an error
Loading. Please wait.

Grace Kelly bass

version 1
version 1

Whole song

Interactive

2,494 views 3 this week
no commentswrite comment
1 2 3 4 5
3 more votes to show rating
add to favorites
×
Save as Personal and add changes to this tab that will be seen only by you. Learn more ›
×
You can save this tab as Personal to edit and correct it or add notes. All changes will be seen only by you. Learn more »
launch autoscroll
font size
0
reset
guitar tuner
edit
Autoscroll
slow
fast
+/-
esc
set tempo
stop
Author
Difficulty
                        Die Aerzte - Grace Kelly


Intro:

Riff A 3x:          Riff B 1x:
1:-----------------|-----------------|
2:-----------------|-----------------|
3:-0-2-3-----------|-0-2-3-----------|
4:--------3-2-0----|--------1-1--3-3-|


1.Strophe:

Es war in Monaco letztes Jahr
1:---------------------------------|---------------------------------|
2:---------------------------------|---------------------------------|
3:-3-3-3-3-3-3-3-3-3-3-3-3-3-3-3-3-|-2-2-2-2-2-2-2-2-2-2-2-2-2-2-2-2-|
4:---------------------------------|---------------------------------|

Ich strich ihr zärtlich über's Haar
1:---------------------------------|
2:---------------------------------|
3:---------------------------------|
4:-1-1-1-1-1-1-1-1-3-3-3-3-3-3-3-3-|

Sie sah auf die Uhr, dann sah sie mich an:
1:---------------------------------|---------------------------------|
2:---------------------------------|---------------------------------|
3:-3-3-3-3-3-3-3-3-3-3-3-3-3-3-3-3-|-2-2-2-2-2-2-2-2-2-2-2-2-2-2-2-2-|
4:---------------------------------|---------------------------------|

"Es ist schon spät, ich muss zurück zu meinem Mann!"
1:---------------------------------|
2:---------------------------------|
3:---------------------------------|
4:-1-1-1-1-1-1-1-1-3-3-3-3-3-3-3-3-|

Und ich ließ sie gehn'.
1:-----------------|
2:-----------0---2-|
3:-3---------------|
4:-----------------|

Warum habe ich sie gehen lassen?
1:---------------------------------|
2:---------------------------------|
3:---------------------------------|
4:-1-1-1-1-1-1-1-1-1-1-1-1-1-1-1-1-|

Dafür werde ich mich immer hassen.
1:---------------------------------|
2:---------------------------------|
3:---------------------------------|
4:-3-3-3-3-3-3-3-3-3-3-3-3-3-3-3-3-|



Refrain (Im Hintergrund: Grace Kelly ist tot):

Grace Kelly, pass auf, in der Kurve lauert der Tod.
1:---------------------------------|---------------------------------|
2:---------------------------------|---------------------------------|
3:-3-3-3-3-3-3-3-3-2-2-2-2-2-2-2-2-|---------------------------------|
4:---------------------------------|-1-1-1-1-1-1-1-1-3-3-3-3-3-3-1-3-|

Grace Kelly, pass auf, in der Kurve lauert der Tod.
1:---------------------------------|---------------------------------|
2:---------------------------------|---------------------------------|
3:-3-3-3-3-3-3-3-3-2-2-2-2-2-2-2-2-|---------------------------------|
4:---------------------------------|-1-1-1-1-1-1-1-1-3-3-3-3-3-3-1-3-|


2.Strophe:
(genau so wie Strophe 1)

So fuhr sie davon, und sie war so schön!
Ich hab' sie als letzter noch lebend gesehen...
Sie winkte noch einmal mit der linken Hand,
Bevor sie um die nächste Kurve verschwand.
Jetzt war alles zu spät.
Grace Kelly, verlass mich nicht.
Wie soll ich leben ohne Dich?


Refrain (Im Hintergrund: Grace Kelly ist tot):

Grace Kelly, pass auf, in der Kurve lauert der Tod.
Grace Kelly, pass auf, in der Kurve lauert der Tod.


Solo:

1:----------------------|----------------------|--------------------------|
2:----------------------|----------------------|--2-----------------------|
3:--0---2--3------------|--0---2--3---5---3--5-|------------2----0--2--0--|
4:-------------3---2--0-|----------------------|--------------------------|


Bridge:
(Die ersten 3 Zeilen werden wie Riff A im Intro gespielt danach wie Strophe 1)

Wir hatten schon Pläne, wegen einer Scheidung
Doch am nächsten Tag laß ich's in der Zeitung
Eine Welt stürzte ein, wie ein Kartenhaus
Ich brach auf der Stelle in Tränen aus
Und das Volk weinte mit mir.
Warum hat Gott das zugelassen?
Ich kann es immer noch nicht fassen.


Refrain:

Grace Kelly ist tot, Grace Kelly ist tot, Grace Kelly ist tot, G. K. ist tot.
Grace Kelly ist tot, Grace Kelly ist tot, Grace Kelly ist tot, G. K. ist tot.
Grace Kelly ist tot, Grace Kelly ist tot, Grace Kelly ist tot, G. K. ist tot.
Grace Kelly ist tot, Grace Kelly ist tot, Grace Kelly ist tot, G. K. ist tot.

End

Peace älf b.

            
            
Suggest correction
Creating personal tab
Creating personal tab
You can edit any tab online and save it as your Personal.

You can edit, replace or remove any tab part or add personal notes – all changes will be seen only by you.

Personal tabs can be accessed anytime from any device, even offline.
Learn more »
Give kudos to tab author, rate the tab!
1 2 3 4 5
comments
print report bad tab
guest
You may want to rate the tab now too:
select rating
Wanna post a correction for this tab? Suggest correction