Oops, an error
Loading. Please wait.

Fifteen tab

569 views 1 this week
2 commentsread comments
1 2 3 4 5
3 more votes to show rating
add to favorites
×
Save as Personal and add changes to this tab that will be seen only by you. Learn more ›
×
You can save this tab as Personal to edit and correct it or add notes. All changes will be seen only by you. Learn more »
launch autoscroll
font size
0
reset
how to read this tab
guitar tuner
edit
Autoscroll
slow
fast
+/-
esc
set tempo
stop
Author
Difficulty
Artist:Forward, Russia!
Track: Fifteen pt. 2
Album: Give Me a Wall
Track #: 10

X-palm mute

intro.
e|--------------------------------|
B|--------------------------------|
G|--77-7-7----33-3-3----55-5-5----|
D|--77-7-7(x4)33-3-3(x2)55-5-5(x2)|(x4)
A|--55-5-5----11-1-1----33-3-3----|
E|--------------------------------|

Synth bit.
e|-----------------------|
B|-/15-17-18-17-18-15(x2)|
G|-----------------------|
D|-----------------------|
A|-----------------------|
E|-----------------------|

I find tremelo picking works best there.

Verse.
Just kind of mess around with picking this chord.
e|-5--|
B|-5--|
G|-7--|
D|-7--|
A|-5--|
E|----|
pm.X

Pre-Chrous.
e|------------------------|
B|------------------------|
G|------------------------|
D|------------------------|
A|-5(x5)-0(x5)-1(x5)-3(x5)|
E|------------------------|

e|-----------------|
B|-----------------|
G|-----------------|
D|-----------------|
A|-555000111333(x4)|
E|-----------------|

e|----------------------------------------------------------------------------|
B|----------------------------------------------------------------------------|
G|----------------------------------------------------------------------------|
D|----------------------------------------------------------------------------|
A|-5555-5-3333-3-8888-8-7777-5555-5-3333-3-8888-8-10101010-5555-5-3333-3-8888-|
E|----------------------------------------------------------------------------|
pm.XXXX X XXXX X XXXX X XXXX XXXX X XXXX X XXXX X XXXXXXXX XXXX X XXXX X XXXX

      --------------------------------------------|
      --------------------------------------------|
contd.--------------------------------------------|
      --------------------------------------------|
      -8-7777-5555-5-3333-3-1111-1-000-000-000-000|
      --------------------------------------------|
       X XXXX XXXX X XXXX X XXXX X XXX XXX XXX XXX

Chorus.
e|-----------------|
B|-----------------|
G|-777----33x3-55x5|
D|-777(x8)33x3-55x5|(x2)
A|-555----11x1-33x3|
E|-----------------|

Verse.
Again, just mess around with picking these.
e|-5--10|
B|-5--10|
G|-7--12|
D|-7--12|
A|-5--10|
E|------|

*Repeat pre-chorus.

Bridge.
e|----------------------------------------|
B|----------------------------------------|
G|----------------------------------------|
D|----------------------------------------|
A|-555-555-555-555-5(x12)-555000111333(x4)|
E|----------------------------------------|

Outro.
e|-------------------------------------------------------------------------------|
B|-------------------------------------------------------------------------------|
G|-------------------------------------------------------------------------------|
D|-------------------------------------------------------------------------------|(x4)
A|-5-00-5-00-5-00-5-00-5050(x2)-1-00-1-00-1-00-1-00-1010-3-00-3-00-3-00-3-00-3030|
E|-------------------------------------------------------------------------------|

Contd.
e|-----------------------------------------------------------------------------------------|
B|-----------------------------------------------------------------------------------------|
G|-3-----5---------------------------------------------------------------------------------|
D|-3(x16)5(x16)---5-----5-3-5-3------------------------------------------------------35----|
A|-1-----3-----057--05-7-------5-3(x2)1-00-1-00-1-00-1-00-1010-3-00-3-00-3-00-3-00-30--(x2)|
E|-----------------------------------------------------------------------------------------|

Contd.
e|---------------------------|
B|---------------------------|
G|-7-----9-----10-----12-----|
D|-7(x16)9(x16)10(x16)12(x16)|
A|-5-----7-----8------10-----|
E|---------------------------|

End.
e|-------|
B|-------|
G|-77-7-7|
D|-77-7-7|
A|-55-5-5|
E|-------|
Suggest correction
Creating personal tab
Creating personal tab
You can edit any tab online and save it as your Personal.

You can edit, replace or remove any tab part or add personal notes – all changes will be seen only by you.

Personal tabs can be accessed anytime from any device, even offline.
Learn more »
Give kudos to tab author, rate the tab!
1 2 3 4 5
comments
print report bad tab
2 comments total.
+1 reply
(GuItAr)(HeRo) 55 Apr 27, 2008 09:30 AM

very good tab...

0 reply
Willellisjones 31 Jul 14, 2008 04:10 AM

Very Good work so far, but I have one or two corrections/additions.
Tune your guitar to drop D.
At 2:09
e|--------------------------------------------------------------|
B|--------------6---------------6---------------6-----6-----6-8-|
G|7-5-7-5---5-7---7-5-7-5---5-7---7-5-7-5---5-7---7-7---7-7-----|
d|--------7---------------7---------------7---------------------|
A|--------------------------------------------------------------|
D|--------------------------------------------------------------|

e|-----------10-------------10-12------------10-12-10-8-----------|
B|----10-------------10---------------10----------------1110------|
G|7-7----7-7-----7-7----7-7-------7-7----7-7----------------------|
d|----------------------------------------------------------------|
A|----------------------------------------------------------------|
D|----------------------------------------------------------------|

e|-----------10-------------10-12------------10-12-10-8-----------|
B|----10-------------10---------------10----------------1110------|
G|7-7----7-7-----7-7----7-7-------7-7----7-7----------------------|
d|----------------------------------------------------------------|
A|----------------------------------------------------------------|
D|----------------------------------------------------------------|

Outro
e|--------------------------------------------------------------------
B|--------------------------------------------------------------------
G|--------------------------------------------------------------------
d|--------------------------------------------------------------------
A|--------------------------------------------------------------------
D|12-00-12-00-12-00-12-00-12-0-12-0-12-00-12-00-12-00-12-00-12-0-12-0-

e|--------------------------------------------------------------|
B|--------------------------------------------------------------|
G|--------------------------------------------------------------|
d|--------------------------------------------------------------|
A|--------------------------------------------------------------|
D|8-00-8-00-8-00-8-00-8-0-8-0-10-00-10-00-10-00-10-00-10-0-10-0-|

Until 4:09
e|---------------------------------------------------|
B|---------------------------------------------------|
G|---------------------------------------------------|
d|------3-----3-5-3-5-3-5--------3-----3-5-3-5-3-5-3-|
A|0-3-5---3-5--------------0-3-5---3-5---------------|
D|---------------------------------------------------|

e|--------------------------------------------------------------|
B|--------------------------------------------------------------|
G|--------------------------------------------------------------|
d|--------------------------------------------------------3-5---|
A|----------------------------------------------------3-5-------|
D|8-00-8-00-8-00-8-00-8-0-8-0-10-00-10-00-10-00-10-00-----------|

Hope that helps.

guest
You may want to rate the tab now too:
select rating
Wanna post a correction for this tab? Suggest correction