Oops, an error
Loading. Please wait.

Pasensya Na tab

version 1
version 1

Whole song

by Cueshé
26,806 views 72 this week
2 commentsread comments
1 2 3 4 5
x 6
add to favorites
×
Save as Personal and add changes to this tab that will be seen only by you. Learn more ›
×
You can save this tab as Personal to edit and correct it or add notes. All changes will be seen only by you. Learn more »
launch autoscroll
font size
0
reset
how to read this tab
guitar tuner
edit
Autoscroll
slow
fast
+/-
esc
set tempo
stop
Author
Unregistered
[Intro and Verse 1]
e|-------------------------------------------------------------------|
B|-------------------------------------------------------------------|
G|-------------------------------------------------------------------|
D|-------6---6---6---------2---2---2----------4--4-4---1-1-1---------|
A|-----6-----------------2------------------4------------------------|
E|---4-----------------0------------------2--------------------------|

[Chorus]
e|--2....-------------------2....-------0....--------------|
B|--2....-------------------2....-------0....--------------|
G|--4....-------4....-------3....-------1....--------------|
D|--4....-------6....-------4....-------2....--------------|
A|--2....-------6....-------4....-------2....--------------|
E|--2....-------4....-------2....-------0....--------------|

[Verse 2]
e|-------------------------------------------------------------------|
B|-------------------------------------------------------------------|
G|-------------------------------------------------------------------|
D|-------6---6---6---------2---2---2----------4--4-4---1-1-1---------|
A|-----6-----------------2------------------4------------------------|
E|---4-----------------0------------------2--------------------------|

[Chorus]
e|--2....-------------------2....-------0....--------------|
B|--2....-------------------2....-------0....--------------|
G|--4....-------4....-------3....-------1....--------------|
D|--4....-------6....-------4....-------2....--------------|
A|--2....-------6....-------4....-------2....--------------|
E|--2....-------4....-------2....-------0....--------------|

[Adlib]
e|-----4---------6--------7--------------------------------|
B|---4---4-----6---6----7---7---7-6-6-7-6-6----------------|
G|-4---------6--------8---------------------8--------------|   (x2)
D|---------------------------------------------------------|
A|---------------------------------------------------------|
E|---------------------------------------------------------|

e|-----11---9-9-------12-11---12-11---12-11---12-11--12-11----------------------|
B|---9-----------12--------12------12------12-----12------12--------------------|
G|------------------------------------------------------------------------------|
D|-------------------------------------------------------------6(let ring)s1----|
A|------------------------------------------------------------------------------|
E|------------------------------------------------------------------------------|

[Verse 3]
e|-------------------------------------------------------------------|
B|-------------------------------------------------------------------|
G|-------------------------------------------------------------------|
D|-------6---6---6---------2---2---2----------4--4-4---1-1-1---------|
A|-----6-----------------2------------------4------------------------|
E|---4-----------------0------------------2--------------------------|
 
[Chorus] (x2)
e|--2....-------------------2....-------0....--------------|
B|--2....-------------------2....-------0....--------------|
G|--4....-------4....-------3....-------1....--------------|
D|--4....-------6....-------4....-------2....--------------|
A|--2....-------6....-------4....-------2....--------------|
E|--2....-------4....-------2....-------0....--------------|

[Outro] 
e|-------------------------------------------------------------------|
B|-------------------------------------------------------------------|
G|-------------------------------------------------------------------|
D|-------6---6---6---------2---2---2----------4--4-4---1-1-1---------|
A|-----6-----------------2------------------4------------------------|
E|---4-----------------0------------------2--------------------------|

            
            
Suggest correction
Creating personal tab
Creating personal tab
You can edit any tab online and save it as your Personal.

You can edit, replace or remove any tab part or add personal notes – all changes will be seen only by you.

Personal tabs can be accessed anytime from any device, even offline.
Learn more »
comments
print report bad tab
2 comments total.
0 reply
najcraze09 10 Jul 20, 2009 06:20 PM

mali po ung intro. my mali din sa adlib part

0 reply
janajay000 10 May 10, 2010 07:23 PM

wrong in adlib

guest
Wanna post a correction for this tab? Suggest correction