Oops, an error
Loading. Please wait.

Auf Gute Freunde Bass Tab

version 1
version 1

Whole song

Interactive

19,487 views 24 this week
no commentswrite comment
1 2 3 4 5
excellent!
x 6
add to favorites
launch autoscroll
font size
0
reset
guitar tuner
Tab Pro tools
  • play this tab
  • loop segment
  • change instrument
  • show fretboard
  • metronome
×
Best way to learn
"Auf Gute Freunde"
Autoscroll
slow
fast
+/-
esc
set tempo
stop
Contributor
Difficulty
Intro: (Bass setzt beim 3. mal ein)

G-|-----------------|-----------------|-----------------|-----------------|
D-|-----------------|-----------------|-----------------|-----------------|
A-|-----------------|-----------------|-----------------|-----------------|
E-|-5-7-(ring)------|-7-3-(ring)------|-3-7-(ring)------|-7-3-(ring)------|

G-|-----------------|-----------------|-----------------|-----------------|
D-|-----------------|-----------------|-----------------|-----------------|
A-|-----------------|-----------------|-----------------|-----------------|
E-|-7-7-7-7-7-7-7-7-|-7-7-7-7-7-7-7-7-|-3-3-3-3-3-3-3-3-|-3-3-3-3-3-3-3-3-|

Strophe:

G-|-----------------|-----------------|-----------------|-----------------|
D-|-----------------|-----------------|-----------------|-----------------|[3x]
A-|-----------------|-----------------|-5-5-5-5-5-5-5-5-|-----------------|
E-|-7-7-7-7-7-7-7-7-|-3-3-3-3-3-3-3-3-|-----------------|-5-5-5-5-5-4-5-6-|

G-|-----------------|-----------------|-----------------|-----------------|
D-|-----------------|-----------------|-----------------|-----------------|
A-|-----------------|-----------------|-5-5-5-5-5-5-5-5-|-----------------|
E-|-7-7-7-7-7-7-7-7-|-3-3-3-3-3-3-3-3-|-----------------|-5-5-5-5-5-5-5-5-|

Refrain:

G-|-----------------|-----------------|-----------------|-----------------|
D-|-----------------|-----------------|-----------------|-----------------|[4x] 
A-|-----------------|-----------------|-5-5-5-5-5-5-5-5-|-----------------|
E-|-7-7-7-7-7-7-7-7-|-3-3-3-3-3-3-3-3-|-----------------|-5-5-5-5-5-5-5-5-|

ÜBERGANG ( 2. TEIL DER INTRO )

STROPHE

REFRAIN

Bridge: (Das Gras war grüner...) [2x]

G-|-----------------|-----------------|-----------------|-----------------|
D-|-----------------|-----------------|-----------------|-----------------|
A-|-----------------|-----------------|-5-5-5-5-5-5-5-5-|-2-2-2-2-2-2-2-2-|
E-|-3-3-3-3-3-3-3-3-|-5-5-5-5-5-5-5-5-|-----------------|-----------------|

G-|-----------------|-----------------|-----------------|-----------------|
D-|-----------------|-----------------|-----------------|-----------------|
A-|-----------------|-----------------|-----------------|-----------------|
E-|-3-3-3-3-3-3-3-3-|-5-5-5-5-5-5-5-5-|-7-7-7-7-7-7-7-7-|-7-7-7-7-7-7-7-7-|

SOLO ( REFRAIN (4x) )

STROPHE

REFRAIN [JETZT 8 MAL]

OUTRO ( 2. TEIL DER INTRO )
comments
print report bad tab
I want to post or [tab]
guest
You may want to rate the tab now too:
select rating
Please do not post tabs as comments. Select "correction" instead!