Oops, an error
Loading. Please wait.
We have Chord Pro version of Broken Home.
It's the closest thing you can get to the original song and it has interactive parts. Check out the tab »
×
7,612 views 18 this week
4 commentsread comments
1 2 3 4 5
x 14
add to favorites
×
Save as Personal and add changes to this tab that will be seen only by you. Learn more ›
×
You can save this tab as Personal to edit and correct it or add notes. All changes will be seen only by you. Learn more »
launch autoscroll
font size
0
reset
how to read this tab
guitar tuner
edit
Autoscroll
slow
fast
+/-
esc
set tempo
stop
Author
Difficulty
-------------------------------------------------------------------------------
                             BROKEN HOME - 5SOS
-------------------------------------------------------------------------------
Tabbed by: Varun
E-mail:varunbabutta@gmail.com

For me it's the best song from the album.
To be honest, i have copied the intro from the version 1.
If anyone makes tutorial on youtube from this, please give credits.

Tuning: STANDARD EBGDAE

CAPO : 1

[Intro] 

e|-----------------------|
B|-----------------------|
G|-----------------------|
D|--2---2---2--2---2---2-|
A|-0-3-0-3-0--0-3-0-3-0--|
E|-----------------------|


[Verse 1]

e|--------------------------------------|
B|--------------------------------------|
G|--------------------------------------|
D|-2---2-2-2-2---2-2-2-2---2-2-0-2-0----|
A|-----------------------------------3--|
E|--------------------------------------| x2

e|------------------------------------|
B|------------------------------------|
G|------------------------------------|
D|-2---2-2-2-2---2-2-2-2---2-2-0-2----|
A|---------------------------------3--|
E|------------------------------------|

Play the same tab again.(except intro)


[Chorus]

e|---------------------------------------------------------------------------|
B|---------------------------------------------------------------------------|
G|-0-0--0-------0-0--0------0-0--0-------------------------------------------|
D|--2-2--2-------2-2--2------2-2--2----------2-------------------------------|
A|---------3-5----------3-5---------3-5--3-5---------------------------------|
E|---------------------------------------------------------------------------|


e|---------------------------------------------------------------------------|
B|---------------------------------------------------------------------------|
G|-0-0--0-------0-0--0------0-0--0-------------------------------------------|
D|--2-2--2-------2-2--2------2-2--2----------2-------2-----------------------|
A|---------3-5----------3-5---------3-5--3-5-----3-5-------------------------|
E|---------------------------------------------------------------------------|

Play again the same tabs again till the bridge.(except intro)


[Bridge]

e|--------------------------------------------------------------------------------------|
B|--------------------------------------------------------------------------------------|
G|---------------------------------------0-0-0-----0-0-0--------------------------------|
D|--2-2--2-0----2-2--2-0----2-2-2-3-2----------2---------2-------2-2--2--2-----2-2--2-2-|
A|-3------3----3------3----3-----------3------3---3-----3------3--------3----3-------3--|
E|--------------------------------------------------------------------------------------|

The rest of the part is chorus again.

            
            
Suggest correction
Creating personal tab
Creating personal tab
You can edit any tab online and save it as your Personal.

You can edit, replace or remove any tab part or add personal notes – all changes will be seen only by you.

Personal tabs can be accessed anytime from any device, even offline.
Learn more »
comments
print report bad tab
4 comments total. Showing first comments.
0 reply
alainab19338 10 Dec 16, 2015 01:29 PM

I hear the chorus as
e|-----------------------------------------------|
B|-----------------------------------------------|
G|-0-0--0-------0-0--0------0-0--0---------------|
D|--2-2--2-------2-2--2------2-2--2----------2---|
A|---------3-5----------5-3---------3-5--3-5-----|
E|-----------------------------------------------|

0 reply
theycallmeRose 41 Mar 06, 2016 02:27 PM

Could the chorus be
E 3-0-3-0-3-0-----3-0-3-0-3-0-----3-0-3-0-3-0-------0--
B-------------1-3-------------3-1-------------3-1-3---1
D------------------------------------------------------
A------------------------------------------------------
E------------------------------------------------------

did it by ear so Idk haha could be wrong lol
good job anywayys

0 reply
shay_maddie 12 Aug 03, 2016 03:47 PM

This actually sounds really good!

guest
You may want to rate the tab now too:
select rating
Wanna post a correction for this tab? Suggest correction