Oops, an error
Loading. Please wait.

Broken Pieces tab

version 2
version 2

Whole song

226 views 3 this week
no commentswrite comment
1 2 3 4 5
2 more votes to show rating
add to favorites
×
Save as Personal and add changes to this tab that will be seen only by you. Learn more ›
×
You can save this tab as Personal to edit and correct it or add notes. All changes will be seen only by you. Learn more »
launch autoscroll
font size
0
reset
how to read this tab
guitar tuner
edit
Autoscroll
slow
fast
+/-
esc
set tempo
stop
-----------------------------------------------------------------------------
                     BROKEN PIECES - 5 Seconds of Summer
-----------------------------------------------------------------------------
Tuning: Drop D (DADGBe)

Check out my guitar cover! This tab is updated from how I play it in the video however so there
are minor changes. https://www.youtube.com/watch?v=lB6K0OjnREI

Guitar 1 - Luke Hemmings
Guitar 2 - Michael Clifford

[Intro/Verse]

Guitar 1 (clean tone)
E|-----------------------------------------------------------------|
B|-----------------------------------------------------------------|
G|-----------------------------------------------------------------|
D|-----------------3-3-3-3-3-3-3-3---------------------------------|
A|-6-6-6-6-6-6-6-6-----------------3-3-3-3-3-3-3-3-----------------|
D|-------------------------------------------------6-6-6-6-6-6-6-6-|
         (back to distortion)                                                                   
E|-----------------------------------------------------------------|
B|-----------------------------------------------------------------|
G|-----------------------------------------------------------------|
D|---------------------------------5-5-5-5-5-5-5-5-----------------|
A|-1-1-1-1-1-1-1-1-3-3-3-3-3-3-3-3-3-3-3-3-3-3-3-3-6-6-6-6-6-6-6-6-|
D|-1-1-1-1-1-1-1-1-3-3-3-3-3-3-3-3-----------------6-6-6-6-6-6-6-6-|
   * * * * * * * * * * * * * * * * * * * * * * * * * * * * * * * *
Guitar 2
e|--------3~---------4~---------3~---------4~----|-----3~----------------4~---------4~----|
B|-----4~----4~---6~----6~---4~----4~---4~----4~-|--4~----4~----3~----4~----4~---4~----4~-| 
G|-----------------------------------------------|-----------3~----3~---------------------|
D|-----------------------------------------------|----------------------------------------|
A|-----------------------------------------------|----------------------------------------|
D|--------------------------------------------2x-|-------------------------------------2x-|

[Verse]

Guitar 1
E|--------------------------------------------------------------------------------------------------|
B|--------------------------------------------------------------------------------------------------|
G|--------------------------------------------------------------------------------------------------|
D|-8-8-8-8-8-8-8-8-1010101010101010-5-5-5-5-5-5-5-5-----------------8-8-8-8-8-8-8-8-8-8-8-8-8-8-8-8-|
A|-6-6-6-6-6-6-6-6-8-8-8-8-8-8-8-8--3-3-3-3-3-3-3-3-6-6-6-6-6-6-6-6-6-6-6-6-6-6-6-6-5-5-5-5-5-5-5-5-|
D|--------------------------------------------------6-6-6-6-6-6-6-6---------------------------------|
   * * * * * * * * * * * * * * * *  * * * * * * * * * * * * * * * * * * * * * * * * * * * * * * * * 
E|--------------------------------1.-|------------------------------2.-||
B|-----------------------------------|---------------------------------||
G|-----------------------------------|---------------------------------||
D|-------------------------6---6-6-6-|-------------------------8-8-8-8-||
A|-6-6-6-6-6-6-6-6-6-6-6-6-6-6-6-6-6-|-6-6-6-6-6-6-6-6-6-6-6-6-6-6-6-6-||
D|-6-6-6-6-6-6-6-6-6-6-6-6-6-6-6-6-6-|-6-6-6-6-6-6-6-6-6-6-6-6---------||
   * * * * * * * * * * * *   *         * * * * * * * * * * * * * * * * 
[Prechorus]

Guitar 1 (no guitar 2, some delay effect is used here)
e|-----------------------|
B|-----------------------|
G|-----------------------|
D|-5~----3~--------------|
A|-3~----1~----6~---x-x--|
D|-------------6~---x-x--|

[Chorus]

Guitar 1
E|-----------------------------------------------------------------------------------|
B|-----------------------------------------------------------------------------------|
G|-8~-----8-8---8-8~---------------------------5~----5-5---5-5~----------------------|  
D|-8~-----8-8---8-8~-----8~-----8-8---8-8~-----5~----5-5---5-5~----6~-----6-6---6-6~-|  
A|-6~-----6-6---6-6~-----8~-----8-8---8-8~-----3~----3-3---3-3~----6~-----6-6---6-6~-|  
D|-----------------------8~-----8-8---8-8~-------------------------6~-----6-6---6-6~-|  

Guitar 2
E|-------------------------------------------------------------------------------------|
B|-8~-----8-8---8-8~---------------------------4~----4-4---4-4-------------------------|
G|---------------------------------------------5~----5-5---5-5-------------------------|  
D|-8~-----8-8---8-8~-----12~----1212--1212~----5~----5-5---5-5~-----10~----1010--1010~-|  
A|-6~-----6-6---6-6~-----8~-----8-8---8-8~-----3~----3-3---3-3~-----6~-----6-6---6-6~--|  
D|-----------------------8~-----8-8---8-8~--------------------------6~-----6-6---6-6~--|  

[Pre-Verse]

Guitar 1
E|-----------------------------------------------------------------|
B|-----------------------------------------------------------------|
G|-----------------------------------------------------------------|
D|-----------------3-3-3-3-3-3-3-3---------------------------------|
A|-6-6-6-6-6-6-6-6-----------------3-3-3-3-3-3-3-3-----------------|
D|-------------------------------------------------6-6-6-6-6-6-6-6-|

Guitar 2
e|--------3~---------4~--------------------------|
B|-----4~----4~---6~----6~---1~-4~-1~------1~----|
G|--------------------------------------1~----1~-|
D|-----------------------------------------------|
A|-----------------------------------------------|
D|--------------------------------------------2x-|                                                           

[Verse]

Guitar 2 (piano transcribed to guitar, no Guitar 1)
E|----------------------------------------------------------------------------8~-5~-------|
B|----------------------------------------------------------------------------------9~-8~-|
G|----------------------------------------------------------------------------------------|
D|------------3~-------------------------------------------3~-----------------------------|
A|-6~------6~---------3~------3~----------------6~------6~--------------------------------|
D|-------------------------------6~--------------------------------6~---------------------|

[Verse Pt. 2]

Guitar 1
E|------------------------------------------------------------------------------------------------------|
B|------------------------------------------------------------------------------------------------------|
G|-----8~------8~--------10~--------10~------5~------5~-------------------------------------------------|
D|-8-8-8~--8-8-8~--10-10-10~--10-10-10~--5-5-5~--5-5-5~------6~------6~--8-8-8~--8-8-8~--8-8-8~--8-8-8~-|
A|-6-6-6~--6-6-6~--8--8--8~---8--8--8~---3-3-3~--3-3-3~--6-6-6~--6-6-6~--6-6-6~--6-6-6~--5-5-5~--5-5-5~-|
D|-------------------------------------------------------6-6-6~--6-6-6~---------------------------------|
   * *     * *     *  *       *  *       * *     * *     * *     * *     * *     * *     * *     * *  
e|-----------------------------------|
B|-----------------------------------| 
G|-----------------------------------|
D|-----------------------------------|
A|-6-6-6-6-6-6-6-6-6-6-6-6-6-6-6-6---|
D|-6-6-6-6-6-6-6-6-6-6-6-6-6-6-6-6---|
   * * * * * * * * * * * * * * * *
Guitar 2
e|-----3~----------------4~---------4~----|
B|--4~----4~----3~----4~----4~---4~----4~-| 
G|-----------3~----3~---------------------|
D|----------------------------------------|
A|----------------------------------------|
D|-------------------------------------2x-|

[Prechorus]

Guitar 1 (no guitar 2, some delay effect is used here)
e|-------------------|
B|-------------------|
G|-------------------|
D|-5~----3~----------|
A|-3~----1~----6~----|
D|-------------6~----|

[Chorus]

Guitar 1
E|-----------------------------------------------------------------------------------|
B|-----------------------------------------------------------------------------------|
G|-8~-----8-8---8-8~---------------------------5~----5-5---5-5~----------------------|  
D|-8~-----8-8---8-8~-----8~-----8-8---8-8~-----5~----5-5---5-5~----6~-----6-6---6-6~-|  
A|-6~-----6-6---6-6~-----8~-----8-8---8-8~-----3~----3-3---3-3~----6~-----6-6---6-6~-|  
D|-----------------------8~-----8-8---8-8~-------------------------6~-----6-6---6-6~-|  

Guitar 2
E|-------------------------------------------------------------------------------------|
B|-8~-----8-8---8-8~---------------------------4~----4-4---4-4-------------------------|
G|---------------------------------------------5~----5-5---5-5-------------------------|  
D|-8~-----8-8---8-8~-----12~----1212--1212~----5~----5-5---5-5~-----10~----1010--1010~-|  
A|-6~-----6-6---6-6~-----8~-----8-8---8-8~-----3~----3-3---3-3~-----6~-----6-6---6-6~--|  
D|-----------------------8~-----8-8---8-8~--------------------------6~-----6-6---6-6~--|  

[Bridge]   

Guitar 1 
e|-11-11-11---11/13-13-13---13/15-15-15---15\-----|-11p8--|-10p6-|-------------------------6---6-8-|
B|---------------------------------------------2x-|-------|------|---------6-6-6-6-8-6-8-9---9-----|
G|-8--8--8----8-/10-10-10---10/12-12-12---12\-----|----4x-|---4x-|-8-8-8-8-------------------------|
D|------------------------------------------------|-------|------|---------------------------------|
A|------------------------------------------------|-------|------|---------------------------------|
D|------------------------------------------------|-------|------|---------------------------------|
  ^Orchestra part transcribed to guitar^

Guitar 2
e|----------------------------------------------2x-|
B|-------------------------------------------------|
G|-5-5-5------5-7-7-7-------8-8-8-------8----------|
D|-5-5-5------5-7-7-7-------8-8-8-------8-6-6-6----| 
A|-3-3-3------3-5-5-5-------6-6-6-------6-6-6-6----| 
D|----------------------------------------6-6-6----|

[Bridge Pt. 2 (Ashton's solo, clean tone)]

Guitar 1 (no Guitar 2)
e|-----------------------------1-1-1-1-1-1-1-1-1-1-1-1-1-3-3-3-3-3-3-3-3-3-3-3-3-3----------------------|
B|-8-8-8-8-8-8-8-8-8-8-8-8-8-3-3-3-3-3-3-3-3-3-3-3-3-3-8-4-4-4-4-4-4-4-4-4-4-4-4-4-4-4-4-4-4-4-4-4-4-4~-|
G|-8-8-8-8-8-8-8-8-8-8-8-8-8-3-3-3-3-3-3-3-3-3-3-3-3-3-8-5-5-5-5-5-5-5-5-5-5-5-5-5-5-5-5-5-5-5-5-5-5-5~-|
D|-------------------------------------------------------------------------------------6---------6---6~-|
A|------------------------------------------------------------------------------------------------------|
D|------------------------------------------------------------------------------------------------------|

[Chorus (2x)]

Guitar 1
e|-----------------------------------------------------------------------------------|
B|-----------------------------------------------------------------------------------|
G|-8~-----8-8---8-8~---------------------------5~----5-5---5-5~----------------------|  
D|-8~-----8-8---8-8~-----8~-----8-8---8-8~-----5~----5-5---5-5~----6~-----6-6---6-6~-|  
A|-6~-----6-6---6-6~-----8~-----8-8---8-8~-----3~----3-3---3-3~----6~-----6-6---6-6~-|  
D|-----------------------8~-----8-8---8-8~-------------------------6~-----6-6---6-6~-|  

Guitar 2
e|-------------------------------------------------------------------------------------|
B|-8~-----8-8---8-8~---------------------------4~----4-4---4-4-------------------------|
G|---------------------------------------------5~----5-5---5-5-------------------------|  
D|-8~-----8-8---8-8~-----12~----1212--1212~----5~----5-5---5-5~-----10~----1010--1010~-|  
A|-6~-----6-6---6-6~-----8~-----8-8---8-8~-----3~----3-3---3-3~-----6~-----6-6---6-6~--|  
D|-----------------------8~-----8-8---8-8~--------------------------6~-----6-6---6-6~--|  

[Outro, Both guitars]

e|-------------|
B|-------------|
G|-------------|
D|-x-x-x-x-----|
A|-x-x-x-x-----|
D|-x-x-x-x-----|
___________________________________
~ - let ring
x - mute note
h - hammer on
p - pull off
* - palm mute

            
            
Suggest correction
Creating personal tab
Creating personal tab
You can edit any tab online and save it as your Personal.

You can edit, replace or remove any tab part or add personal notes – all changes will be seen only by you.

Personal tabs can be accessed anytime from any device, even offline.
Learn more »
Give kudos to tab author, rate the tab!
1 2 3 4 5
comments
print report bad tab
guest
You may want to rate the tab now too:
select rating
Wanna post a correction for this tab? Suggest correction