Oops, an error
Loading. Please wait.

Castaway bass

version 2
version 2

Whole song

  • This track works best on capo 3 with the actual al... Show more
58 views 3 this week
no commentswrite comment
1 2 3 4 5
3 more votes to show rating
add to favorites
×
Save as Personal and add changes to this tab that will be seen only by you. Learn more ›
×
You can save this tab as Personal to edit and correct it or add notes. All changes will be seen only by you. Learn more »
launch autoscroll
font size
0
reset
guitar tuner
edit
Autoscroll
slow
fast
+/-
esc
set tempo
stop
About this tab version
This track works best on capo 3 with the actual album track, but if you're looking to recreate the song, then you can use any/no capo. Was this info helpful? Yes No
I don't use a plectrum to play this, but if you have weak finger muscles or slow reactions times,
then I would suggest using a plectrum.
I used the offical 'Castaway' CD track, but Spotify's version also works.

[Intro]

0:00

Rest

0:06

G|---------------------------------|
D|---------------------------------|
A|-----------------3-3-3-3-3-3-3-3-|
E|-5-5-5-5-5-5-5-5-----------------|

[Verse]

0:12

G|-----------------------------------------------------------------|
D|-----------------------------------------------------------------|
A|-----------------3-3-3-3-3-3-3-3---------------------------------|
E|-5-5-5-5-5-5-5-5-----------------3-3-3-3-3-3-3-3-1-1-1-1-1-1-1-1-|

G|-----------------------------------------------------------------|
D|-----------------------------------------------------------------|
A|-----------------3-3-3-3-3-3-3-3---------------------------------|
E|-5-5-5-5-5-5-5-5-----------------3-3-3-3-3-3-3-3-1-1-1-1-1-1-1-1-|

G|-----------------------------------------------------------------|
D|-----------------------------------------------------------------|
A|-----------------3-3-3-3-3-3-3-3---------------------------------|
E|-5-5-5-5-5-5-5-5-----------------3-3-3-3-3-3-3-3-1-1-1-1-1-1-1-1-|

G|-----------------------------------------------------------------|
D|-----------------------------------------------------------------|
A|-----------------3-3-3-3-3-3-3-3---------------------------------|
E|-5-5-5-5-5-5-5-5-----------------3-3-3-3-3-3-3-3-1-1-1-1-1-1-1-1-|

[Pre-chorus]

0:36

G|-----------------------------------------------------------------|
D|-----------------------------------------------------------------|
A|-----------------------------------------------------------------|
E|-1-1-1-1-1-1-1-1-3-3-3-3-3-3-3-3-5-5-5-5-5-5-5-5-7-7-7-7-7-7-7-7-|

G|---------------------|
D|---------------------|
A|---------------------|
E|-1-1-1-1-1-1-1-1-3-\-|

[Chorus]

0:45

G|-----------------------------------------------------------------|
D|-----------------------------------------------------------------|
A|-----------------3-3-3-3-3-3-3-3---------------------------------|
E|-5-5-5-5-5-5-5-5-----------------1-1-1-1-1-1-1-1-1-1-1-1-1-1-1-1-|

G|-----------------------------------------------------------------|
D|-----------------------------------------------------------------|
A|-----------------3-3-3-3-3-3-3-3---------------------------------|
E|-5-5-5-5-5-5-5-5-----------------1-1-1-1-1-1-1-1-1-1-1-1-1-1-1-1-|

G|-----------------------------------------------------------------|
D|-----------------------------------------------------------------|
A|-----------------3-3-3-3-3-3-3-3---------------------------------|
E|-5-5-5-5-5-5-5-5-----------------1-1-1-1-1-1-1-1-1-1-1-1-1-1-1-1-|

G|-----------------------------------------------------------------|
D|-----------------------------------------------------------------|
A|-----------------3-3-3-3-3-3-3-3---------------------------------|
E|-5-5-5-5-5-5-5-5-----------------1-1-1-1-1-1-1-1-1-1-1-1-1-1-1-1-|

[Verse]

1:08

G|-----------------------------------------------------------------|
D|-----------------------------------------------------------------|
A|---------------------------------3-3-\---------------------------|
E|-5-5-5-\---------------------------------------------------------|

G|-----------------------------------------------------------------|
D|-----------------------------------------------------------------|
A|---------------------------------3-3-\---------------------------|
E|-5-5-\-----------------------------------------------------------|

G|-----------------------------------------------------------------|
D|-----------------------------------------------------------------|
A|-----------------3-3-3-3-3-3-3-3---------------------------------|
E|-5-5-5-5-5-5-5-5-----------------3-3-3-3-3-3-3-3-1-1-1-1-1-1-1-1-|

G|-----------------------------------------------------------------|
D|-----------------------------------------------------------------|
A|-----------------3-3-3-3-3-3-3-3---------------------------------|
E|-5-5-5-5-5-5-5-5-----------------3-3-3-3-3-3-3-3-1-1-1-1-1-1-1-1-|

[Pre-chorus]

1:33

G|-----------------------------------------------------------------|
D|-----------------------------------------------------------------|
A|-----------------------------------------------------------------|
E|-1-1-1-1-1-1-1-1-3-3-3-3-3-3-3-3-5-5-5-5-5-5-5-5-7-7-7-7-7-7-7-7-|

G|---------------------|
D|---------------------|
A|---------------------|
E|-1-1-1-1-1-1-1-1-3-\-|

[Chorus]

1:42

G|-----------------------------------------------------------------|
D|-----------------------------------------------------------------|
A|-----------------3-3-3-3-3-3-3-3---------------------------------|
E|-5-5-5-5-5-5-5-5-----------------1-1-1-1-1-1-1-1-1-1-1-1-1-1-1-1-|

G|-----------------------------------------------------------------|
D|-----------------------------------------------------------------|
A|-----------------3-3-3-3-3-3-3-3---------------------------------|
E|-5-5-5-5-5-5-5-5-----------------1-1-1-1-1-1-1-1-1-1-1-1-1-1-1-1-|

G|-----------------------------------------------------------------|
D|-----------------------------------------------------------------|
A|-----------------3-3-3-3-3-3-3-3---------------------------------|
E|-5-5-5-5-5-5-5-5-----------------1-1-1-1-1-1-1-1-1-1-1-1-1-1-1-1-|

G|-----------------------------------------------------------------|
D|-----------------------------------------------------------------|
A|-----------------3-3-3-3-3-3-3-3---------------------------------|
E|-5-5-5-5-5-5-5-5-----------------1-1-1-1-1-1-1-1-1-1-1-1-1-1-1-1-|

[Instrumental]

2:06

G|-----------------------------------------------------------------|
D|-----------------------------------------------------------------|
A|-----------------3-3-3-3-3-3-3-3---------------------------------|
E|-5-5-5-5-5-5-5-5-----------------1-1-1-1-1-1-1-1-1-1-1-1-1-1-1-1-|

G|-----------------------------------------------------------------|
D|-----------------------------------------------------------------|
A|-----------------3-3-3-3-3-3-3-3---------------------------------|
E|-5-5-5-5-5-5-5-5-----------------1-1-1-1-1-1-1-1-1-1-1-1-1-1-1-1-|

G|-----------------------------------------------------------------|
D|-----------------------------------------------------------------|
A|-----------------3-3-3-3-3-3-3-3---------------------------------|
E|-5-5-5-5-5-5-5-5-----------------1-1-1-1-1-1-1-1-1-1-1-1-1-1-1-1-|

G|-----------------------------------------------------------------|
D|-----------------------------------------------------------------|
A|-----------------3-3-3-3-3-3-3-3---------------------------------|
E|-5-5-5-5-5-5-5-5-----------------1-1-1-1-1-1-1-1-1-1-1-1-1-1-1-1-|

[Bridge]

2:30

G|-----------------------------------------------------------------|
D|-----------------------------------------------------------------|
A|-----------------3~----------------------------------------------|
E|-5~------------------------------1~--------------1~--------------|

G|-----------------------------------------------------------------|
D|-----------------------------------------------------------------|
A|-----------------3~----------------------------------------------|
E|-5~--------------------------------------------------------------|

[Chorus]

2:42

G|-----------------------------------------------------------------|
D|-----------------------------------------------------------------|
A|-----------------3-3-3-3-3-3-3-3---------------------------------|
E|-5-5-5-5-5-5-5-5-----------------1-1-1-1-1-1-1-1-1-1-1-1-1-1-1-1-|

G|-----------------------------------------------------------------|
D|-----------------------------------------------------------------|
A|-----------------3-3-3-3-3-3-3-3---------------------------------|
E|-5-5-5-5-5-5-5-5-----------------1-1-1-1-1-1-1-1-1-1-1-1-1-1-1-1-|

G|-----------------------------------------------------------------|
D|-----------------------------------------------------------------|
A|-----------------3-3-3-3-3-3-3-3---------------------------------|
E|-5-5-5-5-5-5-5-5-----------------1-1-1-1-1-1-1-1-1-1-1-1-1-1-1-1-|

G|-----------------------------------------------------------------|
D|-----------------------------------------------------------------|
A|-----------------3-3-3-3-3-3-3-3---------------------------------|
E|-5-5-5-5-5-5-5-5-----------------1-1-1-1-1-1-1-1-1-1-1-1-1-1-1-1-|

[Outro]

3:06

G|-----------------------------------------------------------------|
D|-----------------------------------------------------------------|
A|-----------------3-3-3-3-3-3-3-3---------------------------------|
E|-5-5-5-5-5-5-5-5-----------------1-1-1-1-1-1-1-1-1-1-1-1-1-1-1-1-|

G|-----------------------------------------------------------------|
D|-----------------------------------------------------------------|
A|-----------------3-3-3-3-3-3-3-3---------------------------------|
E|-5-5-5-5-5-5-5-5-----------------1-1-1-1-1-1-1-1-1-1-1-1-1-1-1-1-|

G|-----------------------------------------------------------------|
D|-----------------------------------------------------------------|
A|-----------------3-3-3-3-3-3-3-3---------------------------------|
E|-5-5-5-5-5-5-5-5-----------------1-1-1-1-1-1-1-1-1-1-1-1-1-1-1-1-|

G|-----------------------------------------------------------------|
D|-----------------------------------------------------------------|
A|-----------------3-3-3-3-3-3-3-3---------------------------------|
E|-5-5-5-5-5-5-5-5-----------------1-1-1-1-1-1-1-1-1-1-1-1-1-1-1-1-|

********************************************************************

\ = Slide down
~ = Vibrato

            
            
Suggest correction
Creating personal tab
Creating personal tab
You can edit any tab online and save it as your Personal.

You can edit, replace or remove any tab part or add personal notes – all changes will be seen only by you.

Personal tabs can be accessed anytime from any device, even offline.
Learn more »
Give kudos to tab author, rate the tab!
1 2 3 4 5
comments
print report bad tab
guest
You may want to rate the tab now too:
select rating
Wanna post a correction for this tab? Suggest correction