Oops, an error
Loading. Please wait.

Disconnected bass

version 1
version 1

Whole song

6,655 views 45 this week
no commentswrite comment
1 2 3 4 5
x 9
add to favorites
×
Save as Personal and add changes to this tab that will be seen only by you. Learn more ›
×
You can save this tab as Personal to edit and correct it or add notes. All changes will be seen only by you. Learn more »
launch autoscroll
font size
0
reset
guitar tuner
edit
Autoscroll
slow
fast
+/-
esc
set tempo
stop
Author
-------------------------------------------------------------------------------
                  DISCONNECTED - 5 Seconds of Summer
-------------------------------------------------------------------------------
This is my favorite 5sos song so I decided to post a bass tab, enjoy :)

[Verse]
  "life's a tangled web..."
G|---------------------------------------------------------------------------|
D|--------7------------------------------------------------------------------|
A|-5-5\-----5-5\-------------------------------------------------------------|
E|--------------------2--3-3---2h3-3-3---------------------------------------|

  "and you, you're so caught up..."
G|---------------------------------------------------------------------------|
D|---------------------------------------------------------------------------|
A|-5-5\-----4h5-5-5\------------------------------7-7--7-9-7-5---------------|
E|--------------------2--3-3---2h3-3-3---------------------------------------|

  "i admit I'm a bit of a victim..."
G|---------------------------------------------------------------------------|
D|---------------------------------------------------------------------------|
A|-5-5-4h5-5-4h5-5-4h5-5-----------------------------------------------------|
E|-------------------------2--3-3---2h3-3-3----------------------------------|

  "tune out the static sound..."
G|---------------------------------------------------------------------------|
D|-----7----7----7--7-5-4----------------------------------------------------|
A|-5-5--5-5--5-5--5----------------------------------------------------------|
E|-------------------------------3-3---2h3-3-3-3-3-3-3-3---------------------|

[Chorus]
  "i like the summer rain..."
G|---------------------------------------------------------------------------|
D|---------------------------------------------------------------------------|
A|-5-------------------------------------------------------------------------|
E|---------------------------------------------------------------------------|

  "i like the sounds you make..."
G|---------------------------------------------------------------------------|
D|---------------------------------------------------------------------------|
A|-4-------------------------------------------------------------------------|
E|---------------------------------------------------------------------------|

  "we put the world away..."
G|---------------------------------------------------------------------------|
D|---------------------------------------------------------------------------|
A|---------------------------------------------------------------------------|
E|-3-3-3---------------------------------------------------------------------|

  "we get so disconnected..."
G|---------------------------------------------------------------------------|
D|---------------------------------------------------------------------------|
A|---------------------------------------------------------------------------|
E|-3-5-----------------------------------------------------------------------|

x2

[Verse]
  "hands around my waist..."
G|---------------------------------------------------------------------------|
D|--------7------------------------------------------------------------------|
A|-5-5\-----5-5\-------------------------------------------------------------|
E|--------------------2--3-3---2h3-3-3---------------------------------------|

  "and I'm a falling star..."
G|---------------------------------------------------------------------------|
D|--7-5-4---7-5-4---7-5-4---7-5----------------------------------------------|
A|-5-------5-------5-------5-------------------------------------------------|
E|-------------------------------2--3-3---2h3-3-3----------------------------|

  "and I admit I'm a bit..."
G|---------------------------------------------------------------------------|
D|---------------------------------------------------------------------------|
A|-5-5-4h5-5-4h5-5-4h5-5-----------------------------------------------------|
E|-------------------------2--3-3-3---2h3-3-3--------------------------------|

  "turn down the static sound..."
G|---------------------------------------------------------------------------|
D|-----7----7----7--7-5-4----------------------------------------------------|
A|-5-5--5-5--5-5--5----------------------------------------------------------|
E|-------------------------------3-3---2h3-3-3-3-3-3-3-3---------------------|

[Chorus]
  "i like the summer rain..."
G|---------------------------------------------------------------------------|
D|---------------------------------------------------------------------------|
A|-5-------------------------------------------------------------------------|
E|---------------------------------------------------------------------------|

  "i like the sounds you make..."
G|---------------------------------------------------------------------------|
D|---------------------------------------------------------------------------|
A|-4-------------------------------------------------------------------------|
E|---------------------------------------------------------------------------|

  "we put the world away..."
G|---------------------------------------------------------------------------|
D|---------------------------------------------------------------------------|
A|---------------------------------------------------------------------------|
E|-3-3-3---------------------------------------------------------------------|

  "we get so disconnected..."
G|---------------------------------------------------------------------------|
D|---------------------------------------------------------------------------|
A|---------------------------------------------------------------------------|
E|-3-5-----------------------------------------------------------------------|

x2

[Bridge]
  "turn off the radio..."
G|---------------------------------------------------------------------------|
D|---------------------------------------------------------------------------|
A|-2-------------------------------------------------------------------------|
E|---------------------------------------------------------------------------|

  "those late night TV shows..."
G|---------------------------------------------------------------------------|
D|---------------------------------------------------------------------------|
A|---------------------------------------------------------------------------|
E|-3-------------------------------------------------------------------------|

  "hang up the telephone..."
G|---------------------------------------------------------------------------|
D|---------------------------------------------------------------------------|
A|-5-------------------------------------------------------------------------|
E|---------------------------------------------------------------------------|

  "and just be here with me..."
G|---------------------------------------------------------------------------|
D|---------------------------------------------------------------------------|
A|-4-4-4-4-4-4-4-4-----------------------------------------------------------|
E|---------------------------------------------------------------------------|

x2

[Chorus]
  "i like the summer rain..."
G|---------------------------------------------------------------------------|
D|---------------------------------------------------------------------------|
A|-5-------------------------------------------------------------------------|
E|---------------------------------------------------------------------------|

  "i like the sounds you make..."
G|---------------------------------------------------------------------------|
D|---------------------------------------------------------------------------|
A|-4-------------------------------------------------------------------------|
E|---------------------------------------------------------------------------|

  "we put the world away..."
G|---------------------------------------------------------------------------|
D|---------------------------------------------------------------------------|
A|---------------------------------------------------------------------------|
E|-3-3-3---------------------------------------------------------------------|

  "we get so disconnected..."
G|---------------------------------------------------------------------------|
D|---------------------------------------------------------------------------|
A|---------------------------------------------------------------------------|
E|-3-5-----------------------------------------------------------------------|

x4

************************************

| \  Slide down
| h  Hammer-on

************************************

            
            
Suggest correction
Creating personal tab
Creating personal tab
You can edit any tab online and save it as your Personal.

You can edit, replace or remove any tab part or add personal notes – all changes will be seen only by you.

Personal tabs can be accessed anytime from any device, even offline.
Learn more »
comments
print report bad tab
guest
You may want to rate the tab now too:
select rating
Wanna post a correction for this tab? Suggest correction