Oops, an error
Loading. Please wait.

Girls Talk Boys bass

version 3
version 3

Whole song

  • This tab includes standard tuning and a more accur... Show more
  • This tab is formatted correctly, notated correctly... Show more
832 views 9 this week
no commentswrite comment
1 2 3 4 5
x 4
add to favorites
×
Save as Personal and add changes to this tab that will be seen only by you. Learn more ›
×
You can save this tab as Personal to edit and correct it or add notes. All changes will be seen only by you. Learn more »
launch autoscroll
font size
0
reset
guitar tuner
edit
Autoscroll
slow
fast
+/-
esc
set tempo
stop
Author
Difficulty
About this tab version
This tab is formatted correctly, notated correctly, and is better for using auto scroll. The chorus is correct. Was this info helpful? Yes No
  Intro
G|----------------------------------|
D|-----------------5---4---3-/-9----|
A|----------------------------------|
E|----------------------------------|
   1 + 2 + 3 + 4 + 1 + 2 + 3 + 4 +

G|-----------------------------------------------------------------|
D|-----------------------------------------------------------------|
A|-7-------------5-7-7-------------7-------------5-7-7-------------|
E|-----------------------------------------------------------------|
   1 + 2 + 3 + 4 + 1 + 2 + 3 + 4 + 1 + 2 + 3 + 4 + 1 + 2 + 3 + 4 +

G|-----------------------------------------------------------------|
D|-------------------------------------------------5---4---3-/-9---|
A|-----------------------------------------------------------------|
E|-5-------------3-5-5-------------5-------------3-----------------|
   1 + 2 + 3 + 4 + 1 + 2 + 3 + 4 + 1 + 2 + 3 + 4 + 1 + 2 + 3 + 4 +

  Verse
G|-----------------------------------------------------------------|
D|-----------------------------------------------------------------|
A|-7-------------5-7-7-------------7-------------5-7-7-------------|
E|-----------------------------------------------------------------|
   1 + 2 + 3 + 4 + 1 + 2 + 3 + 4 + 1 + 2 + 3 + 4 + 1 + 2 + 3 + 4 +

G|-----------------------------------------------------------------|
D|-------------------------------------------------5---4---3-/-9---|
A|-----------------------------------------------------------------|
E|-5-------------3-5-5-------------5-------------3-----------------|
   1 + 2 + 3 + 4 + 1 + 2 + 3 + 4 + 1 + 2 + 3 + 4 + 1 + 2 + 3 + 4 +

G|---------------------------------------------------------4-----7-|
D|-----------------------------------------------------------7-5---|
A|-7-------------5-7-7-------------7-------------5-7-7-------------|
E|-----------------------------------------------------------------|
   1 + 2 + 3 + 4 + 1 + 2 + 3 + 4 + 1 + 2 + 3 + 4 + 1 + 2 + 3 + 4 +

G|-----------------------------------------------------------------|
D|-----------------------------------------------------------------|
A|-----------------------------------------------------------------|
E|-5-------------3-5-5-------------5-------------3-----------------|
   1 + 2 + 3 + 4 + 1 + 2 + 3 + 4 + 1 + 2 + 3 + 4 + 1 + 2 + 3 + 4 +

  Pre-Chorus
G|-----------------------------------------------------------------|
D|-----------------------------------------------------------------|
A|-7-------------5-7-7-------------7-------------5-7-7-------------|
E|-----------------------------------------------------------------|
   1 + 2 + 3 + 4 + 1 + 2 + 3 + 4 + 1 + 2 + 3 + 4 + 1 + 2 + 3 + 4 +

G|-----------------------------------------------------------------|
D|-------------------------------------------------5---4---3-/-9---|
A|-----------------------------------------------------------------|
E|-5-------------3-5-5-------------5-------------3-----------------|
   1 + 2 + 3 + 4 + 1 + 2 + 3 + 4 + 1 + 2 + 3 + 4 + 1 + 2 + 3 + 4 +

Chorus

Rest 8 Measures

G|-----------------------------------------------------------------|
D|-----------------------------------------------------------------|
A|-3-3-3-3-3-3-3-3-----------------3-3-3-3-3-3-3-3-----------------|
E|-----------------3-3-3-3-2-2-2-2-----------------3-3-3-3-2-2-2-2-|
   1 + 2 + 3 + 4 + 1 + 2 + 3 + 4 + 1 + 2 + 3 + 4 + 1 + 2 + 3 + 4 +

G|-----------------------------------------------------------------|
D|-------------------------------------------------5---4---3-/-9---|
A|-3-3-3-3-3-3-3-3-------------------------------------------------|
E|-----------------3-3-3-3-2-2-2-2---------------------------------|
   1 + 2 + 3 + 4 + 1 + 2 + 3 + 4 + 1 + 2 + 3 + 4 + 1 + 2 + 3 + 4 +

  Verse
G|-----------------------------------------------------------------|
D|-----------------------------------------------------------------|
A|-7-------------5-7-7-------------7-------------5-7-7-------------|
E|-----------------------------------------------------------------|
   1 + 2 + 3 + 4 + 1 + 2 + 3 + 4 + 1 + 2 + 3 + 4 + 1 + 2 + 3 + 4 +

G|-----------------------------------------------------------------|
D|-------------------------------------------------5---4---3-/-9---|
A|-----------------------------------------------------------------|
E|-5-------------3-5-5-------------5-------------3-----------------|
   1 + 2 + 3 + 4 + 1 + 2 + 3 + 4 + 1 + 2 + 3 + 4 + 1 + 2 + 3 + 4 +

G|---------------------------------------------------------4-----7-|
D|-----------------------------------------------------------7-5---|
A|-7-------------5-7-7-------------7-------------5-7-7-------------|
E|-----------------------------------------------------------------|
   1 + 2 + 3 + 4 + 1 + 2 + 3 + 4 + 1 + 2 + 3 + 4 + 1 + 2 + 3 + 4 +

G|-----------------------------------------------------------------|
D|-----------------------------------------------------------------|
A|-----------------------------------------------------------------|
E|-5-------------3-5-5-------------5-------------3-----------------|
   1 + 2 + 3 + 4 + 1 + 2 + 3 + 4 + 1 + 2 + 3 + 4 + 1 + 2 + 3 + 4 +

  Pre-Chorus
G|-----------------------------------------------------------------|
D|-----------------------------------------------------------------|
A|-7-------------5-7-7-------------7-------------5-7-7-------------|
E|-----------------------------------------------------------------|
   1 + 2 + 3 + 4 + 1 + 2 + 3 + 4 + 1 + 2 + 3 + 4 + 1 + 2 + 3 + 4 +

G|-----------------------------------------------------------------|
D|-------------------------------------------------5---4---3-/-9---|
A|-----------------------------------------------------------------|
E|-5-------------3-5-5-------------5-------------3-----------------|
   1 + 2 + 3 + 4 + 1 + 2 + 3 + 4 + 1 + 2 + 3 + 4 + 1 + 2 + 3 + 4 +

Chorus

Rest 8 Measures

G|-----------------------------------------------------------------|
D|-----------------------------------------------------------------|
A|-3-3-3-3-3-3-3-3-----------------3-3-3-3-3-3-3-3-----------------|
E|-----------------3-3-3-3-2-2-2-2-----------------3-3-3-3-2-2-2-2-|
   1 + 2 + 3 + 4 + 1 + 2 + 3 + 4 + 1 + 2 + 3 + 4 + 1 + 2 + 3 + 4 +

G|-----------------------------------------------------------------|
D|-------------------------------------------------5---4---3-/-9---|
A|-3-3-3-3-3-3-3-3-------------------------------------------------|
E|-----------------3-3-3-3-2-2-2-2---------------------------------|
   1 + 2 + 3 + 4 + 1 + 2 + 3 + 4 + 1 + 2 + 3 + 4 + 1 + 2 + 3 + 4 +

  Outro
G|------------------------------------------------------------------|
D|o-----------------------------------------------------------------|
A|o-7-------------5-7-7-------------7-------------5-7-7-------------|
E|------------------------------------------------------------------|
    1 + 2 + 3 + 4 + 1 + 2 + 3 + 4 + 1 + 2 + 3 + 4 + 1 + 2 + 3 + 4 +

G|------------------------------------------------------------------|
D|-------------------------------------------------5---4---3-/-9---o|
A|-----------------------------------------------------------------o|
E|-5-------------3-5-5-------------5-------------3------------------|
   1 + 2 + 3 + 4 + 1 + 2 + 3 + 4 + 1 + 2 + 3 + 4 + 1 + 2 + 3 + 4 +

G|-----------------------------------------------------------------|
D|-----------------------------------------------------------------|
A|-7-\-r-----------------------------------------------------------|
E|-----------------------------------------------------------------|
   1 + 2 + 3 + 4 + 1 + 2 + 3 + 4 + 1 + 2 + 3 + 4 + 1 + 2 + 3 + 4 +

Tabbed by Jack Mills

            
            
Suggest correction
Creating personal tab
Creating personal tab
You can edit any tab online and save it as your Personal.

You can edit, replace or remove any tab part or add personal notes – all changes will be seen only by you.

Personal tabs can be accessed anytime from any device, even offline.
Learn more »
comments
print report bad tab
guest
You may want to rate the tab now too:
select rating
Wanna post a correction for this tab? Suggest correction