Oops, an error
Loading. Please wait.

Heartbreak Girl bass

version 5
version 5

Whole song

73 views 1 this week
no commentswrite comment
1 2 3 4 5
3 more votes to show rating
add to favorites
×
Save as Personal and add changes to this tab that will be seen only by you. Learn more ›
×
You can save this tab as Personal to edit and correct it or add notes. All changes will be seen only by you. Learn more »
launch autoscroll
font size
0
reset
guitar tuner
edit
Autoscroll
slow
fast
+/-
esc
set tempo
stop
Author
Difficulty
About this tab version
This version is tabbed out with exactly the same notes as played by Calum at the iTunes Festival - https://www.youtube.com/watch?v=vXrUwsc4LoU Bass is in standard tuning, however Michael's playing guitar in E flat. This tab is in the original key of A#. Calum plays the whole song with a pick. Was this info helpful? Yes No
(Heartbreak Girl Live From the iTunes Festival - https://www.youtube.com/watch?v=vXrUwsc4LoU

[Intro]

G|---------------------------------------------|
D|---------------------------------------------|
A|---------------------------------------------|
E|---6-6---------------------------9~----------|

[Riff] Break

[Verse] 

"You call me up..."
G|---------------------------------------------|
D|---------------------------------------------|
A|------------------6~--5~~--------------------|
E|-6--6-6--6--6-6-6----------------------------|

"Record, saying that your heart hurts"
G|---------------------------------------------|
D|---------------------------------------------|
A|---------------6~--5~------------------------|
E|-5--5-5--5--6~----------8~-------------------|

G|---------------------------------------------|
D|---------------------------------------------|
A|-----------------1/8~------------------------|
E|-3--3-3--1--1-1------------------------------|

"Never get over him getting over you"
G|---------------------------------------------|
D|----------------8~--10~----------------------|
A|-6--6-6--6--6-6------------------------------|
E|---------------------------------------------|

"And you end up crying"
G|---------------------------------------------|
D|---------------------------------------------|
A|---------------------------------------------|
E|-6--6-6--6--6-6-6~--5--5-5--5--5-5-5~--------|

"Lying cuz I'm just..."
G|---------------------------------------------|
D|---------------------------------------------|
A|-------------------6--6-6--6--6-6--6---------|
E|-3--3-3--1--1-1--1~------------------6-------|

[Pre-chorus]

G|---------------------------------------------|
D|---------------------------------------------|
A|---------------------------------------------|
E|--3~----------1~---------11~-----------------|  

[Chorus]

G|------------------------------------------------------------------|
D|------------------------------------------------------------------|
A|-----------------------------5--5--5-5-5-5--5-5-5--5/8-8----------|
E|-6--6--6-6-6-6--6-6-6--6-6-6--------------------------------------|  \
                                                                         x2
                                                                       /
G|------------------------------------------------------------------|
D|------------------------------------------------------------------|
A|-10--10--10-10-10-10--10-10-10--10-10-10--6--6--6-6-6-6--6-6-6----|
E|------------------------------------------------------------------| 

[Verse]First half, same as before. 

G|---------------------------------------------|
D|---------------------------------------------|
A|------------------6~--5~~--------------------|
E|-6--6-6--6--6-6-6----------------------------|

G|---------------------------------------------|
D|---------------------------------------------|
A|---------------6~--5~------------------------|
E|-5--5-5--5--6~----------8~-------------------|

G|---------------------------------------------|
D|---------------------------------------------|
A|-----------------1/8~------------------------|
E|-3--3-3--1--1-1------------------------------|

G|---------------------------------------------|
D|----------------8~--10~----------------------|
A|-6--6-6--6--6-6------------------------------|
E|---------------------------------------------|

Second half (Calum) "But you're not ready"
G|---------------------------------------------------|
D|---------------------------------------------------|
A|---------------------------------------------------|
E|-6---6-6---6---6-6--6~---5---5-5---5---5-5--5~-----|


G|---------------------------------------------------------|
D|---------------------------------------------------------|
A|-------------------1/15~---6---6-6---6---6-6---6---------|
E|-3---3-3---1---1-1--------------------------------6------|

[Pre-chorus] 

G|---------------------------------------------|
D|---------------------------------------------|
A|---------------------------------------------|
E|--3~----------1~---------11~-----------------|  

[Chorus] 

G|------------------------------------------------------------------|
D|------------------------------------------------------------------|
A|-----------------------------5--5--5-5-5-5--5-5-5--5/8-8----------|
E|-6--6--6-6-6-6--6-6-6--6-6-6--------------------------------------|  \
                                                                         x2
                                                                       /
G|------------------------------------------------------------------|
D|------------------------------------------------------------------|
A|-10--10--10-10-10-10--10-10-10--10-10-10--6--6--6-6-6-6--6-6-6----|
E|------------------------------------------------------------------| 

[Bridge]

"I know someday it's gonna happen"
G|------------------------------------------------|
D|------------------------------------------------|
A|-8---8-8---8---8-8--8---6---6-6---6---6-6--6----|
E|------------------------------------------------|

G|---------------------------------------------------|
D|---------------------------------------------------|
A|----------------------------------------------8----|
E|-6---6-6---6---6-6--6---6---6-6---6---6-6--6-------|  

G|------------------------------------------------|
D|------------------------------------------------|
A|-8---8-8---8---8-8--8---6---6-6---6---6-6--6----|
E|------------------------------------------------|

"I've gotta get it through..."
G|---------------------------------------------|
D|---------------------------------------------|
A|---------------------------------------------|
E|-8-8-8-8-8-8-8-8-11-11-11-11-11~-------------|

[Instrumental/Solo] Same as chorus.
G|------------------------------------------------------------------|
D|------------------------------------------------------------------|
A|-----------------------------5--5--5-5-5-5--5-5-5--5/8-8----------|
E|-6--6--6-6-6-6--6-6-6--6-6-6--------------------------------------|  \
                                                                         x2
                                                                       /
G|------------------------------------------------------------------|
D|------------------------------------------------------------------|
A|-10--10--10-10-10-10--10-10-10--10-10-10--6--6--6-6-6-6--6-6-6----|
E|------------------------------------------------------------------| 

[Outro/Chorus]

G|------------------------------------------------------------------|
D|------------------------------------------------------------------|
A|-----------------------------5--5--5-5-5-5--5-5-5--5/8-8----------|
E|-6--6--6-6-6-6--6-6-6--6-6-6--------------------------------------|  
                                                                         
                                                                      
G|------------------------------------------------------------------|
D|------------------------------------------------------------------|
A|-10--10--10-10-10-10--10-10-10--10-10-10--6~----------------------|
E|------------------------------------------------------------------| 



************************************

| x   Dead note
| g   Grace note
| (n) Ghost note
| h   Hammer-on
| p   Pull-off
| /   Slide up
| \   Slide down
| ~   Vibrato


************************************

            
            
Suggest correction
Creating personal tab
Creating personal tab
You can edit any tab online and save it as your Personal.

You can edit, replace or remove any tab part or add personal notes – all changes will be seen only by you.

Personal tabs can be accessed anytime from any device, even offline.
Learn more »
Give kudos to tab author, rate the tab!
1 2 3 4 5
comments
print report bad tab
guest
You may want to rate the tab now too:
select rating
Wanna post a correction for this tab? Suggest correction