Oops, an error
Loading. Please wait.

Hey Everybody bass

version 1
version 1

Whole song

Interactive

16,000 views 42 this week
1 commentread comment
1 2 3 4 5
x 21
add to favorites
×
Save as Personal and add changes to this tab that will be seen only by you. Learn more ›
×
You can save this tab as Personal to edit and correct it or add notes. All changes will be seen only by you. Learn more »
launch autoscroll
font size
0
reset
guitar tuner
edit
Autoscroll
slow
fast
+/-
esc
set tempo
stop
Author
Difficulty
intermediate
'Sounds Good, Feels Good.'
G|-----------------------------------------------------------------|
D|-----------------------------------------------------------------|
A|-----------------------------------------------------------------|
E|-----------------------------------------------------------------|
   1 + 2 + 3 + 4 + 1 + 2 + 3 + 4 + 1 + 2 + 3 + 4 + 1 + 2 + 3 + 4 +

[Verse]

G|-----------------------------------------------------------------|
D|-----------------------------------------------------------------|
A|-----------------------------------------------------------------|
E|-----------------------------------------------------------------|
   1 + 2 + 3 + 4 + 1 + 2 + 3 + 4 + 1 + 2 + 3 + 4 + 1 + 2 + 3 + 4 +

G|-----------------------------------------------------------------|
D|-------------------------------------6---------------6-----------|
A|-5-5-5-5-5-5-5-5-----------------------7---------------7---------|
E|-----------------5-5-5-5-5-5-5-5-0-0-----0-0-4-5-0-0-----0-0-4-5-|
   1 + 2 + 3 + 4 + 1 + 2 + 3 + 4 + 1 + 2 + 3 + 4 + 1 + 2 + 3 + 4 +

G|-----------------------------------------------------------------|
D|-----6---------------6---------------6---------------6-----------|
A|-------7---------------7---------------7---------------7---------|
E|-0-0-----0-0-4-5-0-0-----0-0-4-5-0-0-----0-0-4-5-0-0-----0-0-4-5-|
   1 + 2 + 3 + 4 + 1 + 2 + 3 + 4 + 1 + 2 + 3 + 4 + 1 + 2 + 3 + 4 +

G|-----------------------------------------------------------------|
D|-------------------------------------6---------------6-----------|
A|-5-5-5-5-5-5-5-5-----------------------7---------------7---------|
E|-----------------5-5-5-5-5-5-5-5-0-0-----0-0-4-5-0-0-----0-0-----|
   1 + 2 + 3 + 4 + 1 + 2 + 3 + 4 + 1 + 2 + 3 + 4 + 1 + 2 + 3 + 4 +


[Chorus]

G|-----------------------------------------------------------------|
D|-----------------------------------------------------------------|
A|---------------------------------5-5-5-5-5-5-5-5-5-5-5-5-5-5-5-5-|
E|-0-0-0-0-0-0-0-0-0-0-0-0-0-0-0-0---------------------------------|
   1 + 2 + 3 + 4 + 1 + 2 + 3 + 4 + 1 + 2 + 3 + 4 + 1 + 2 + 3 + 4 +

G|-----------------------------------------------------------------|
D|-----------------------------------------------------------------|
A|-----------------------------------------------------------------|
E|-5-5-5-5-5-5-5-5-5-5-5-5-5-5-5-5-0-0-0-0-0-0-0-0-0-0-0-0---------|
   1 + 2 + 3 + 4 + 1 + 2 + 3 + 4 + 1 + 2 + 3 + 4 + 1 + 2 + 3 + 4 +

G|-----------------------------------------------------------------|
D|-------------------------------------------------------7-------5-|
A|---------------------------------5-5-5-5-5-5-5-5-5-5-5---5-5-5---|
E|-0-0-0-0-0-0-0-0-0-0-0-0-0-0-0-0---------------------------------|
   1 + 2 + 3 + 4 + 1 + 2 + 3 + 4 + 1 + 2 + 3 + 4 + 1 + 2 + 3 + 4 +

G|-----------------------------------------------------------------|
D|-----------------------------------------------------------------|
A|-------------------------------------------------------------2-2-|
E|-5-5-5-5-5-5-5-5-5-5-5-5-5-5-5-5-0-0-0-0-0-0-0-0-0-0-2-2-4-4-----|
   1 + 2 + 3 + 4 + 1 + 2 + 3 + 4 + 1 + 2 + 3 + 4 + 1 + 2 + 3 + 4 +


[Post-Chorus]

G|-----------------------------------------------------------------|
D|-----------------------------------------------------------------|
A|-----7---5-4---------7---5-4---------7---5-4---------7---5-4-----|
E|-0-------------0---0-------------0-------------0---0-------------|
   1 + 2 + 3 + 4 + 1 + 2 + 3 + 4 + 1 + 2 + 3 + 4 + 1 + 2 + 3 + 4 +


[Verse]

G|-----------------------------------------------------------------|
D|-----6---------------6---------------6---------------6-----------|
A|-------7---------------7---------------7---------------7---------|
E|-0-0-----0-0-4-5-0-0-----0-0-4-5-0-0-----0-0-4-5-0-0-----0-0-4-5-|
   1 + 2 + 3 + 4 + 1 + 2 + 3 + 4 + 1 + 2 + 3 + 4 + 1 + 2 + 3 + 4 +

G|-----------------------------------------------------------------|
D|-----------------------/-7-7-7-7-----6---------------6-----------|
A|-5-5-5-5-5-5-5-5-----------------------7---------------7-----7-\-|
E|-----------------5-5-5-5---------0-0-----0-0-4-5-0-0-----0-0-----|
   1 + 2 + 3 + 4 + 1 + 2 + 3 + 4 + 1 + 2 + 3 + 4 + 1 + 2 + 3 + 4 +

G|-----------------------------------------------------------------|
D|-----6---------------6---------------6---------------6-----------|
A|-------7---------------7---------------7---------------7---------|
E|-0-0-----0-0-4-5-0-0-----0-0-4-5-0-0-----0-0-4-5-0-0-----0-0-4-5-|
   1 + 2 + 3 + 4 + 1 + 2 + 3 + 4 + 1 + 2 + 3 + 4 + 1 + 2 + 3 + 4 +

G|-----------------------------------------------------------------|
D|-----------------------/-7-7-7-7-----6---------------6-----------|
A|-5-5-5-5-5-5-5-5-----------------------7---------------7---------|
E|-----------------5-5-5-5---------0-0-----0-0-4-5-0-0-----0-0-----|
   1 + 2 + 3 + 4 + 1 + 2 + 3 + 4 + 1 + 2 + 3 + 4 + 1 + 2 + 3 + 4 +


[Chorus]

G|-----------------------------------------------------------------|
D|-----------------------------------------------------------------|
A|---------------------------------5-5-5-5-5-5-5-5-5-5-5-5-5-5-5-5-|
E|-0-0-0-0-0-0-0-0-0-0-0-0-0-0-0-0---------------------------------|
   1 + 2 + 3 + 4 + 1 + 2 + 3 + 4 + 1 + 2 + 3 + 4 + 1 + 2 + 3 + 4 +

G|-----------------------------------------------------------------|
D|-----------------------------------------------------------------|
A|-----------------------------------------------------------------|
E|-5-5-5-5-5-5-5-5-5-5-5-5-5-5-5-5-0-0-0-0-0-0-0-0-0-0-0-0---------|
   1 + 2 + 3 + 4 + 1 + 2 + 3 + 4 + 1 + 2 + 3 + 4 + 1 + 2 + 3 + 4 +

G|-----------------------------------------------------------------|
D|-------------------------------------------------------7-------5-|
A|---------------------------------5-5-5-5-5-5-5-5-5-5-5---5-5-5---|
E|-0-0-0-0-0-0-0-0-0-0-0-0-0-0-0-0---------------------------------|
   1 + 2 + 3 + 4 + 1 + 2 + 3 + 4 + 1 + 2 + 3 + 4 + 1 + 2 + 3 + 4 +

G|-----------------------------------------------------------------|
D|-----------------------------------------------------------------|
A|-----------------------------------------------------------------|
E|-5-5-5-5-5-5-5-5-5-5-5-5-5-5-5-5-0-0-0-0-0-0-0-0-0-0-0-0-0-0-0-0-|
   1 + 2 + 3 + 4 + 1 + 2 + 3 + 4 + 1 + 2 + 3 + 4 + 1 + 2 + 3 + 4 +


[Post-Chorus]

G|-----------------------------------------------------------------|
D|-----------------------------------------------------------------|
A|-----7---5-4---------7---5-4---------7---5-4---------7---5-4-----|
E|-0-------------0---0-------------0-------------0---0-------------|
   1 + 2 + 3 + 4 + 1 + 2 + 3 + 4 + 1 + 2 + 3 + 4 + 1 + 2 + 3 + 4 +

Rest

  So What Ya Say Everybody?
G|-----------------------------------------------------------------|
D|-----------------------------------------------------------------|
A|---------------------------------5-5-5-5-5-5-5-5-5-5-5-5-5-5-5-5-|
E|-0-0-0-0-0-0-0-0-0-0-0-0-0-0-0-0---------------------------------|
   1 + 2 + 3 + 4 + 1 + 2 + 3 + 4 + 1 + 2 + 3 + 4 + 1 + 2 + 3 + 4 +

G|-----------------------------------------------------------------|
D|---------------------------------------------------------76----6-|
A|-------------------------------------------------7---7-----779---|
E|-5-5-5-5-5-5-5-5-5-5-5-5-5-5-5-5-0-0-0-0-0-0-0-0---0---0---------|
   1 + 2 + 3 + 4 + 1 + 2 + 3 + 4 + 1 + 2 + 3 + 4 + 1 + 2 + 3 + 4 +

G|-----------------------------------------------------------------|
D|---------------------------------4-4-4-4-4-4-4-4-4-4-4-4-4-4-4-4-|
A|-7-7-7-7-7-7-7-7-7-7-7-7-7-7-7-7---------------------------------|
E|-----------------------------------------------------------------|
   1 + 2 + 3 + 4 + 1 + 2 + 3 + 4 + 1 + 2 + 3 + 4 + 1 + 2 + 3 + 4 +

G|-----------------------------------------------------------------|
D|-----------------------------------------------------------------|
A|-------------------------------------------------------------2-2-|
E|-5-5-5-5-5-5-5-5-5-5-5-5-5-5-5-5-0-0-0-0-0-0-0-0-0-0-2-2-4-4-----|
   1 + 2 + 3 + 4 + 1 + 2 + 3 + 4 + 1 + 2 + 3 + 4 + 1 + 2 + 3 + 4 +


[Outro]

G|---------------------------------|
D|---------------------------------|
A|-----7---5-4---------7---5-4-----|
E|-0-------------0---0-------------|
   1 + 2 + 3 + 4 + 1 + 2 + 3 + 4 +

Tabbed By Jack Mills



************************************

| /  Slide up
| \  Slide down

************************************

            
            
Suggest correction
Creating personal tab
Creating personal tab
You can edit any tab online and save it as your Personal.

You can edit, replace or remove any tab part or add personal notes – all changes will be seen only by you.

Personal tabs can be accessed anytime from any device, even offline.
Learn more »
comments
print report bad tab
1 comment total.
0 reply
Mizza_Clizza 10 Oct 10, 2015 08:10 AM

hello! thank you for tabs! could you make tab for Wrapped around your finger please?

guest
You may want to rate the tab now too:
select rating
Wanna post a correction for this tab? Suggest correction