Oops, an error
Loading. Please wait.

Long Way Home Acoustic tab

version 1
version 1

Whole song

Interactive

2,992 views 21 this week
2 commentsread comments
1 2 3 4 5
x 5
add to favorites
×
Save as Personal and add changes to this tab that will be seen only by you. Learn more ›
×
You can save this tab as Personal to edit and correct it or add notes. All changes will be seen only by you. Learn more »
launch autoscroll
font size
0
reset
how to read this tab
guitar tuner
edit
Autoscroll
slow
fast
+/-
esc
set tempo
stop
Author
Unregistered
Hellooooo

This is my first tab, song is Long Way Home (Acoustic Version) by 5 Seconds Of Summer
Song is awesome, there aren't many accurate tabs to this song on this website so here is my shot at it.
I believe there are two guitar parts to the song, this version only includes
one part along with small lead parts, I'm not too sure if this is what Luke or Michael plays.
Any who this isn't 100% correct but for the most part it sounds good and I believe they play it this
way, the rhythm and strum patterns aren't entirely correct but they're not hard to figure out by listening
to the song.
Hope this is useful to you guys :)

Standard Tuning
Intro 
E|--x--x-----0--x--x--0--0--              
B|--x--x-----0--x--x--0--0--
G|--x--x--1--0--x--x--2--0--
D|--x--x--2-----x--x--2-----
A|--x--x--2-----x--x--0-----
E|--x--x--0-----x--x-------  x2 then


E|--x--x--0--0--x--x--0--0--
B|--x--x--0--0--x--x--0--0--
G|--x--x--6--0--x--x--4--0--
D|--x--x--6-----x--x--4-----
A|--x--x--4-----x--x--2-----
E|--x--x--------x--x--------


Verse
E|--0--    --0--    --0--    --0--
B|--0--    --0--    --0--    --0--
G|--1--    --2--    --6--    --4--
D|--2--    --2--    --6--    --4--
A|--2--    --0--    --4--    --2--
E|--0-- x8 ----- x8 ----- x4 ----- x4
Palm Mute these chords and strum the top strings to add the sound heard in the studio version.


Pre Chorus
E|--x--x--0------0-------0-----0-----
B|--x--x--0------0-------0-----0-----
G|--x--x--1------2-------6-----4-----
D|--x--x--2------2-------6-----4-----
A|--x--x--2------0-------4-----2-----
E|--x--x--0--------------------------
Let these chords ring out
Play this twice, make sure to listen to the song to get this right,

Small Little Lead Part, may not be 100% correct but it's close :)
E|--0-----0-----0-----0-----0-----
B|-----0-----0-----0-----0-----0--
G|--------------------------------
D|--------------------------------
A|--------------------------------
E|--------------------------------


Chorus

Make sure to add the mutes and the extra chord strums, I tried to tab it out but not everything might
be shown right so make sure to listen to the song
E|--0--0--x--x--0--0--x--x--0--0--x--x--
B|--0--0--x--x--0--0--x--x--0--0--x--x--
G|--1--1--x--x--4--4--x--x--2--2--x--x--
D|--2--2--x--x--4--4--x--x--2--2--x--x--
A|--2--2--x--x--2--2--x--x--0--0--x--x--
E|--0--0--x--x--------x--x--------x--x-- x2 then


E|--0--0--x--x--0--0--x--x--0--0--x--x--0--
B|--0--0--x--x--0--0--x--x--0--0--x--x--0--
G|--1--1--x--x--4--4--x--x--6--6--x--x--2--
D|--2--2--x--x--4--4--x--x--6--6--x--x--2--
A|--2--2--x--x--2--2--x--x--4--4--x--x--0--
E|--0--0--x--x--------x--x--------x--x----- play this once and then

E|--0--0--x--x--0--0--x--x--0--0--x--x--
B|--0--0--x--x--0--0--x--x--0--0--x--x--
G|--1--1--x--x--4--4--x--x--2--2--x--x--
D|--2--2--x--x--4--4--x--x--2--2--x--x--
A|--2--2--x--x--2--2--x--x--0--0--x--x--
E|--0--0--x--x--------x--x--------x--x--


Post Chorus 

Guitar One
E|-------0------0-------0-----0---
B|-------0------0-------0-----0---
G|-------1------2-------6-----4---
D|-------2------2-------6-----4---
A|-------2------0-------4-----2---
E|-------0------------------------

Guitar Two
E|--0-----0-----0-----0-----0-----
B|-----0-----0-----0-----0-----0--
G|--------------------------------
D|--------------------------------
A|--------------------------------
E|--------------------------------

Verse

Pre Chorus

Chorus

Bridge 
This part may not be all that accurate but it sounds good to me.

E|--0--0--x--x--0--0--x--x--0--0--x--x--0--0--0--0--
B|--0--0--x--x--0--0--x--x--0--0--x--x--0--0--0--0--
G|--6--6--x--x--4--4--x--x--2--2--x--x--1--1--2--2--
D|--6--6--x--x--4--4--x--x--2--2--x--x--2--2--2--2--
A|--4--4--x--x--2--2--x--x--0--0--x--x--2--2--0--0--
E|--------x--x--------x--x--------x--x--0--0-------- 4x

Post Chorus

Chorus

Bridge

Post Chorus

And that's the song hopefully you guys can play it now!!
Thanks and please rate!!! :)

            
            
Suggest correction
Creating personal tab
Creating personal tab
You can edit any tab online and save it as your Personal.

You can edit, replace or remove any tab part or add personal notes – all changes will be seen only by you.

Personal tabs can be accessed anytime from any device, even offline.
Learn more »
comments
print report bad tab
2 comments total.
+1 reply
bigj99 10 Dec 22, 2016 12:53 AM

I LOVE THIS TAB THANK YOU FOR MAKING IT

0 reply
zPUNKz 10 Nov 07, 2017 11:17 AM

Haha no problem!

guest
Wanna post a correction for this tab? Suggest correction