Oops, an error
Loading. Please wait.

Permanent Vacation tab

version 1
version 1

Whole song

Interactive

4,480 views 12 this week
no commentswrite comment
1 2 3 4 5
x 4
add to favorites
×
Save as Personal and add changes to this tab that will be seen only by you. Learn more ›
×
You can save this tab as Personal to edit and correct it or add notes. All changes will be seen only by you. Learn more »
launch autoscroll
font size
0
reset
how to read this tab
guitar tuner
edit
Autoscroll
slow
fast
+/-
esc
set tempo
stop
Author
-----------------------------------------------------------------------------
                 PERMANENT VACATION - 5 Seconds Of Summer
-----------------------------------------------------------------------------
E-mail: a7xlucas@live.com

Tuning: Drop D (DADGBe)

Guitar 1 - Luke Hemmings
Guitar 2 - Michael Clifford

Fun main riff to play. Enjoy!

Check out my guitar cover here https://www.youtube.com/watch?v=DdHTDAw_Clg

Intro/Main Riff:

Guitar 1, 2x
e|------------------------------6x-|------------------------------2x-|
B|---------------------------------|---------------------------------|
G|-----------------------------5-5-|-----------------------------5-5-|
D|---------5-5-8-8---------6-6-----|---------5-5-8-8---------6-6-----|
A|-6-6---6---------4-4---4---------|-6-6---6---------4-4---4---------|
D|---------------------------------|---------------------------------|

Guitar 2
e|---------------------------------|---------------------------------------------|
B|---------------------------------|---------------------------------------------|
G|---------------------------------|-8-8------8-8----6-6---------x-8-8------8-8--|
D|-------(silence)-----------------|-8-8------8-8----6-6--x-6-6--x-8-8------8-8--|
A|---------------------------------|-6-6------6-6----4-4--x-6-6--x-6-6------6-6--|
D|---------------------------------|----------------------x-6-6------------------|

Guitar 1
e|-------------------------------------------|------------1.-|-------------2.-|| Play "1.", then play the
B|-------------------------------------------|---------------|----------------|| previous bar, then skip
G|---------------8--8--8--8--8-5--5--5--5--5-|-3--3--3--3----|-6--6--6--6--6~-|| "1." and play "2."
D|-6--6--6--6--6-8--8--8--8--8-5--5--5--5--5-|-3--3--3--3-5~-|-6--6--6--6--6~-|| instead
A|-6--6--6--6--6-6--6--6--6--6-3--3--3--3--3-|-1--1--1--1-5~-|-4--4--4--4--4~-||
D|-6--6--6--6--6-----------------------------|------------5~-|----------------||

Guitar 2
e|-------------------------------------------|---------------1.-|--------------------2.-||
B|-------------------------------------------|-3--3--3----------|-----------------------||
G|-5--5--5--5--5-8--8--8--8--8-5--5--5--5--5-|-3--3--3--(pause)-|-6--6--6--6------------||
D|---------------8--8--8--8--8-5--5--5--5--5-|------------------|-6--6--6--6-----xxxxxx-|| Play these
A|-3--3--3--3--3-6--6--6--6--6-3--3--3--3--3-|-1--1--1----------|-4--4--4--4-----xxxxxx-|| mutes VERY
D|-------------------------------------------|------------------|----------------xxxxxx-|| fast

Chorus:

Guitar 1                          Guitar 2
e|------------------------------|------------------------------------|
B|------------------------------|-8----------------------------------|
G|-8------6---------------------|-8------13------17~-13--------------|
D|-8--x16-6--x16-6------(pause)-|----x16-----x16---------x22-xxxxxxx-|
A|-6------4------6--x24---------|-6------11------15~-11------xxxxxxx-|
D|---------------6--------------|----------------------------xxxxxxx-|

Preverse:

Guitar 1 (no Guitar 2)
e|--------------------------(0)-------| Those bracketed 0's are played by loudly strumming the part
B|--------------------------(0)-------| to the left of the 1st fret.
G|-8--8--8--8--8-6--6--6----(0)-------|
D|-8--8--8--8--8-6--6--6-6--(0)-------|
A|-6--6--6--6--6-4--4--4-6--(0)-------|
D|-----------------------6--(0)-------|

Verse 2 Pt. 1

Guitar 1
e|------------------------------3x-|-----------------------------|------------------------------3x-|
B|---------------------------------|-----------------------------|---------------------------------|
G|-----------------------------5-5-|-------------------------8-8-|-----------------------------5-5-|
D|---------5-5-8-8---------6-6-----|---------5-5-8-8-----666-----|---------5-5-8-8---------6-6-----|
A|-6-6---6---------4-4---4---------|-6-6---6---------4-4---------|-6-6---6---------4-4---4---------|
D|---------------------------------|-----------------------------|---------------------------------|

Guitar 2
e|-------------------------------------------------------------------------------------------------|
B|-------------------------------------------------8-8---------------------------------------------|
G|-8-8------8-8----6-6---------x-8-8------8-8--888------8-8------8-8----6-6---------x-8-8------8-8-|
D|-8-8------8-8----6-6--x-6-6--x-8-8------8-8-----------8-8------8-8----6-6--x-6-6--x-8-8------8-8-|
A|-6-6------6-6----4-4--x-6-6--x-6-6------6-6-----------6-6------6-6----4-4--x-6-6--x-6-6------6-6-|
D|----------------------x-6-6------------------------------------------------x-6-6-----------------|

Repeat:
Chorus 2

Bridge:

Guitar 1                                    Guitar 2
e|----------------------------|-----------||-11-15-11-15--------|------|
B|----------------------------|-8~~~~~~~~-||------------14~-13~-|-8~~~-|
G|-8--8--8--8--8-5--5--5------|-8~~~~~~~~-||--------------------|-8~~~-|
D|-8--8--8--8--8-5--5--5-6666-|-8~~~~~~~~-||--------------------|------|
A|-6--6--6--6--6-3--3--3-6666-|-6~~~~~~~~-||--------------------|------|
D|-----------------------6666-|-----------||-----------------2x-|------|
                                                                  Lift up
*Silence - Drum solo*                                            whammy bar
                                                                  gradually
Bridge Pt. 2:

Guitar 1
e|------------------------------5x-|--------------------------|
B|---------------------------------|--------------------------|
G|-----------------------------5-5-|-----------------6t--3t-\-|
D|---------5-5-8-8---------6-6-----|---------5-5-8-8----------|
A|-6-6---6---------4-4---4---------|-6-6---6---------4t--1t-\-|
D|---------------------------------|--------------------------|

Guitar 2
e|-----------------4x-|---------------|
B|--------------------|---------------|
G|--------------------|---------------|
D|-8-8-----6-6--------|---(silence)---|
A|-6-6-----4-4---6-6--|---------------|
D|---------------6-6--|---------------|

Final Chorus:

Guitar 1                 Guitar 2
e|----------------------|------------------------------------|
B|----------------------|-8----------------------------------|
G|-8------6-------------|-8------13------17~-13--------------|
D|-8--x16-6--x16-6------|----x16-----x16---------x22-xxxxxxx-|
A|-6------4------6--x24-|-6------11------15~-11------xxxxxxx-|
D|---------------6------|----------------------------xxxxxxx-|

Guitar 1                    Guitar 2
e|-------------------------|---------------------------------|
B|-------------------------|-8-----------------------------.-|
G|-8------6--------------.-|-8------13------17~-13------1313-|
D|-8--x16-6--x16-6------66-|----x16-----x16---------x22------|
A|-6------4------6--x24-66-|-6------11------15~-11------1111-|
D|---------------6------66-|---------------------------------|

Outro:

Guitar 1                                    Guitar 2
e|----------------------------|-----------||-11-15-11-15--------|------|------|
B|----------------------------|--.----.---||------------14~-13~-|-8~~~-|--.---|
G|-8--8--8--8--8-5--5--5------|-88---88---||--------------------|-8~~~-|-88---|
D|-8--8--8--8--8-5--5--5-6666-|-88---88---||--------------------|------|-88---|
A|-6--6--6--6--6-3--3--3-6666-|-66---66---||--------------------|------|-66---|
D|-----------------------6666-|-----------||-----------------2x-|------|------|
                                                                  ^Lift up whammy bar gradually

            
            
Suggest correction
Creating personal tab
Creating personal tab
You can edit any tab online and save it as your Personal.

You can edit, replace or remove any tab part or add personal notes – all changes will be seen only by you.

Personal tabs can be accessed anytime from any device, even offline.
Learn more »
comments
print report bad tab
guest
You may want to rate the tab now too:
select rating
Wanna post a correction for this tab? Suggest correction