Oops, an error
Loading. Please wait.

Teenage Dream tab

version 3
version 3

Whole song

2,469 views 15 this week
no commentswrite comment
1 2 3 4 5
x 7
add to favorites
×
Save as Personal and add changes to this tab that will be seen only by you. Learn more ›
×
You can save this tab as Personal to edit and correct it or add notes. All changes will be seen only by you. Learn more »
launch autoscroll
font size
0
reset
how to read this tab
guitar tuner
edit
Autoscroll
slow
fast
+/-
esc
set tempo
stop
Author
Difficulty
-------------------------------------------------------------------------------
                             Teenage Dream // 5 Seconds of Summer
-------------------------------------------------------------------------------
Hello! This is my take on the Teenage Dream cover that 5SOS perform live, it shouldn't
be too hard to play acoustically either. I've tried to make it as basic as possible,
so it is in standard tuning, no need to worry about tuning to drop D or anything. 

Tuning: Standard (EADGBe)


Opening Riff:

e|---------------------------------------------------|  
B|------------------------------------------8-7-5----|  ( This part is optional. Michael plays this 
G|------6-7-6-----5-6-6-5-5-----6-7-6-7-7-7-------7--|    4x in the LIVESOS version of the song, whether
D|--5-5-------7-7-----------9-9----------------------|    or not you play it is completely up to you. )
A|---------------------------------------------------|
E|---------------------------------------------------|

Introduction:

e|--------------------------------------|
B|--7-7-7-7-7-7-7-7-7-7-7-7----5-5-5-5--| 
G|--7-7-7-7-7-7-7-7-7-7-7-7----7-7-7-7--| (Repeat this line until you reach
D|--------------------------------------|  the verse)
A|--------------------------------------|
E|--------------------------------------|

"I think you're pretty without any makeup on..."

Verse:

e|-----------------|
B|-----------------|
G|-----------------| (Repeat until chorus
D|--5----9----7-7--|
A|--5----9----7-7--|
E|--5----7----5-5--|

"Before you met me, I was alright but things were kinda heavy..."
 
Chorus:

e|--------------------------------|
B|--------------------------------| 
G|--------------------------------| (Repeat until second verse)
D|--5-5-5-5----9----7-7----7-7-7--|
A|--5-5-5-5----9----7-7----7-7-7--|
E|--3-3-3-3----7----5-5----5-5-5--|

"You make me feel like I'm living a teenage dream..."

Bridge:

e|------------------------------------------------------------------------------------|
B|------------------------------------------------------------------------------------|
G|------------------------------------------------------------------------------------| 
D|--5-5-5-5-5-5-5-5----7-7-7-7-7-7-7-7----9-9-9-9-9-9-9-9----12-12-12-12-12-12-12-12--| (Repeat 2X)
A|--5-5-5-5-5-5-5-5----7-7-7-7-7-7-7-7----9-9-9-9-9-9-9-9----12-12-12-12-12-12-12-12--|
E|--3-3-3-3-3-3-3-3----5-5-5-5-5-5-5-5----7-7-7-7-7-7-7-7----10-10-10-10-10-10-10-10--|

" 'Cause I can feel your heart racing, in my skin tight jeans..."


After the bridge, the rest of the song is more or less the chorus 
with a little bit of the introduction at the end. 

Roadmap
Opening Riff
Introduction
Verse
Chorus
Verse
Chorus
Bridge
Chorus
End on introduction

That's it guys! If this helped you in anyway please rate it, if you have any questions, please comment them and 
I'll try to address them ASAP. Thanks for checking out my tab and have yourself a wonderful day! xx

            
            
Suggest correction
Creating personal tab
Creating personal tab
You can edit any tab online and save it as your Personal.

You can edit, replace or remove any tab part or add personal notes – all changes will be seen only by you.

Personal tabs can be accessed anytime from any device, even offline.
Learn more »
comments
print report bad tab
guest
You may want to rate the tab now too:
select rating
Wanna post a correction for this tab? Suggest correction