Oops, an error
Loading. Please wait.

Wild Side bass

version 2
version 2

Whole song

Interactive

11,195 views 12 this week
2 commentsread comments
1 2 3 4 5
x 4
add to favorites
×
Save as Personal and add changes to this tab that will be seen only by you. Learn more ›
×
You can save this tab as Personal to edit and correct it or add notes. All changes will be seen only by you. Learn more »
launch autoscroll
font size
0
reset
guitar tuner
edit
Autoscroll
slow
fast
+/-
esc
set tempo
stop
Author
Difficulty
Band: Motley Crue - Wild Side
Album: Girls , Girls , Girls

This is my first bass tab , hope you like it!

Intro
G:-------------------|-----------------------|
D:-------------------|-----------------------|
A:--3-3-3*-----3-3-3*|-----3-3-3*------3-3-3*|
E:3----------3-------|3x24-------3x24--------|

Verse
G:-----------------------|
D:-----------------------|
A:-----------------------|
E:3x64-1x16-3x48-1x16-3x8|

Chorus
G:-----------------------|
D:-----------------------|
A:-----3-3-3*------3-3-3*|
E:3x24-------3x24--------|

Verse

Chorus
G:----------------------------------------|
D:----------------------------------------|
A:-----3-3-3*------3-3-3*-3-3-3*-3-3-3*-1*|
E:3x24-------3x8--------------------------|

Bridge
G:---------|--------|----------|----------|   G:--------|
D:---------|--------|----------|----------|   D:--------|
A:--1-3----|----1---|----1-----|----1-----|   A:--1-3--
E:3------3-|3-3----3|3-3---3--3|3-3---3--3|x3 E:3------3|x3

Pre-verse
G:-----------------------------------------------|
D:-----------------------------------------------|
A:-----3-3-3-------3-3-3-------3-3-3-------3-3-3-|
E:3x24--------3x24--------3x24--------3x24-------|

Verse2
G:------------------------|
D:------------------------|
A:------------------------|
E:3x64-1x16-3x48-1x16-3x16|

Chorus2
G:-----------------------------------------------|
D:-----------------------------------------------|
A:-----3-3-3-------3-3-3-------3-3-3-------3-3-3-|
E:3x24-------3x24---------3x24--------3x24-------|

Interlude
G:------------------------------------------------|
D:------------------------------------------------|
A:--------------------------------3-3-3--3-3-3--1*|
E:3-3-3-3--3-3-3-3--3-3-3-3--3-3------------------|

Bridge
G:---------|--------|----------|----------|  
D:---------|--------|----------|----------|  
A:--1-3----|----1---|----1-----|----1-----|   
E:3------3-|3-3----3|3-3---3--3|3-3---3--3|x1

G:---------|
D:---------|
A:----3-1--|
E:3-3-----3| play this part trough end...
|


Suggest correction
Creating personal tab
Creating personal tab
You can edit any tab online and save it as your Personal.

You can edit, replace or remove any tab part or add personal notes – all changes will be seen only by you.

Personal tabs can be accessed anytime from any device, even offline.
Learn more »
comments
print report bad tab
2 comments total.
0 reply
x_Motley-Crue_x 10 Jan 27, 2009 09:44 AM

Thank you very much! This tab is perfect, great job!

0 reply
mckxgxn 10 Dec 25, 2014 06:02 PM

shouldn't the tuning be in half step down? I played it that way and it sounded just right to me. Good tab though!

guest
You may want to rate the tab now too:
select rating
Wanna post a correction for this tab? Suggest correction