Oops, an error
Loading. Please wait.
We have Chord Pro version of Für Elise.
It's the closest thing you can get to the original song and it has interactive parts. Check out the tab »
×
70,349 views 81 this week
7 commentsread comments
1 2 3 4 5
x 50
add to favorites
×
Save as Personal and add changes to this tab that will be seen only by you. Learn more ›
×
You can save this tab as Personal to edit and correct it or add notes. All changes will be seen only by you. Learn more »
launch autoscroll
font size
0
reset
guitar tuner
backing track
0:00
0:00
edit
Autoscroll
slow
fast
+/-
esc
set tempo
stop
Author
Difficulty
I ran into this tab on bassmasta.com when it was still running but it pissed me
off because the original tab was all on one string, so I figured out how to play
it while keeping your hand in the same position on the neck. Not too hard to pull
off but it's pretty fun and it impresses people that don't play.

G|-9-8-9-8-9---7--------------------------|
D|-----------9---10-7------7-9----7-9-10--|
A|-----------------------7------7---------|
E|---------------------8------------------|

G|-9-8-9-8-9---7--------------------------|
D|-----------9---10-7------7-9----10-9-7--|
A|-----------------------7------7---------|
E|---------------------8------------------|

G|------7-9--9-10-9-7--7-9-7--------7------------7--|
D|-9-10----------------------10--10---10-9--9-10----|
A|--------------------------------------------------|
E|--------------------------------------------------|

G|-9-8-9-8-9---7--------------------------|
D|-----------9---10-7------7-9----10-9-7--|
A|-----------------------7------7---------|
E|---------------------8------------------|

OR

I like to finish it off this way. It's nothing too fancy but I think it zazz's it
up a little bit and especially sounds cool if your bass is strung with
flatwounds. I do the chord by strumming upwards with my middle and index fingers
put together, I don't think the Stanley Clarke-style strumming fits the rest of the song.

G|-9-8-9-8-9---7----------------------------------5--|
D|-----------9---10-7------7-9------10---9h10p9---7--|
A|-----------------------7------7--------------------|
E|---------------------8-----------------------------|

************************************

| h  Hammer-on
| p  Pull-off

************************************

            
            
Suggest correction
Creating personal tab
Creating personal tab
You can edit any tab online and save it as your Personal.

You can edit, replace or remove any tab part or add personal notes – all changes will be seen only by you.

Personal tabs can be accessed anytime from any device, even offline.
Learn more »
comments
print report bad tab
7 comments total. Showing first comments.
+6 reply
QwaQwaFruit 240 Mar 10, 2012 12:38 PM

"...and it impresses people that don't play."

Every musician's story.
Nice tab. I support you finishing it as said.

0 reply
Silpaca 32 Apr 21, 2015 10:10 AM

Awesome tab!

0 reply
hi2.thewholeworld 10 Jun 26, 2016 03:11 AM

When you say you like to finish with -----5--|
p9---7--|
--------|
--------|
I find it easier and almost better with a -----5--|
p9------|
-----0--|
--------|

guest
You may want to rate the tab now too:
select rating
Wanna post a correction for this tab? Suggest correction