Oops, an error
Loading. Please wait.

Erinnerungen Tab

version 2
version 2

Whole song

Interactive

13,252 views 6 this week
no commentswrite comment
1 2 3 4 5
3 more votes to show rating
add to favorites
×
Save as Personal and add changes to this tab that will be seen only by you. Learn more ›
×
You can save this tab as Personal to edit and correct it or add notes. All changes will be seen only by you. Learn more »
save as personal
new!
launch autoscroll
font size
0
reset
how to read this tab
guitar tuner
Autoscroll
slow
fast
+/-
esc
set tempo
stop
Böhse Onkelz - Erinnerungen
Tabbed By: Viva Los Tioz
Album: "Gehasst Verdammt Vergöttert"


Intro + Verse : "Clean"


E |----------------|----------------|----------------|----------------|
H |*------6----6---|------6----6----|------5----5----|------5----5---*|
G |---------7---7--|--------7---7---|--------5----5--|--------5----5--|
D |-----7--------7-|----7--------7--|----5---------5-|----5---------5-|
A |*-5-------------|-5--------------|-3--------------|-3-------------*|
E |----------------|----------------|----------------|----------------|


Vor Uebergang auf Chorus:

E |----------------|----------------|----------------|----------------|
H |*------3----3---|------5----5----|-------6----6---|-------6----6--*|
G |---------3---3--|---------5---5--|---------7---7--|---------7---7--|
D |-----3--------3-|-----5--------5-|-----7--------7-|-----7--------7-|
A |*-1-------------|--3-------------|--5-------------|--5------------*|
E |----------------|----------------|----------------|----------------|


Chorus: "Verzerrt"

|: D Bb C :| (Rythmus selbst raus hoeren !)

dann:
 
 D Bb D Bb D CBridge: "Verzerrt"

     As Gis F               C D        As Gis F        
E |----------------|----------------|----------------|
H |----------------|--------5-7-----|----------------|
G |--8--6--3-------|--3--3--5-7-----|--8--6--3---3-3-|
D |--8--6--3-------|--3--3--3-5-----|--8--6--3---3-3-|
A |--6--4--1-------|--1--1----------|--6--4--1---1-1-|
E |----------------|----------------|----------------|

     A  F  G          A  F  G         A  F  A  F  A G
E |----------------|----------------|----------------|
H |----------------|----------------|----------------|
G |--7--3--5-------|--7--3--5-------|-7--3--7--3--7-5|
D |--7--3--5-------|--7--3--5-------|-7--3--7--3--7-5|
A |--5--1--3-------|--5--1--3-------|-5--1--5--1--5-3|
E |----------------|----------------|----------------|

waehrend der Bridge spielt der Bass ein kleines Solo !


Gitarren Solo: "Verzerrt"
                                                               ~~~
E |---13-12-10-----|--13-12-10------|-10-12-13-15-13-|-12-13-10-------|
H |----------------|----------------|----------------|----------------|
G |----------------|----------------|----------------|----------------|
D |----------------|----------------|----------------|----------------|
A |----------------|----------------|----------------|----------------|
E |----------------|----------------|----------------|----------------|

                                                               ~~~         
E |---13-12-10-----|--13-12-10------|-10-12-13-15-13-|-12-13-10-------|
H |----------------|----------------|----------------|----------------|
G |----------------|----------------|----------------|----------------|
D |----------------|----------------|----------------|----------------|
A |----------------|----------------|----------------|----------------|
E |----------------|----------------|----------------|----------------|


E |----10-12-13-12-|-10-13-8-10-8-10|---13-12-10-----|---13-12-10-----|
H |----------------|----------------|----------------|----------------|
G |----------------|----------------|----------------|----------------|
D |----------------|----------------|----------------|----------------|
A |----------------|----------------|----------------|----------------|
E |----------------|----------------|----------------|----------------|

                                  ~~~
E |-10-12-13-15-13-|-12-13-10-8-10--|
H |----------------|----------------|
G |----------------|----------------|
D |----------------|----------------|
A |----------------|----------------|
E |----------------|----------------|


Danach kommt wieder der Chorus nur schneller, man kennt das ja !


Viel Spass !
Suggest correction
Give kudos to tab author, rate the tab!
1 2 3 4 5
comments
print report bad tab
guest
Wanna post a correction for this tab? Suggest correction