Oops, an error
Loading. Please wait.

Bin Ich Nur Gluecklich Wenn Es Schmerzt tab

version 1
version 1

Whole song

Interactive

82,164 views 93 this week
1 commentread comment
1 2 3 4 5
x 10
add to favorites
×
Save as Personal and add changes to this tab that will be seen only by you. Learn more ›
×
You can save this tab as Personal to edit and correct it or add notes. All changes will be seen only by you. Learn more »
launch autoscroll
font size
0
reset
how to read this tab
guitar tuner
edit
Autoscroll
slow
fast
+/-
esc
set tempo
stop
Author
Unregistered
Bin ich nur gl?cklich, wenn es schmerzt - B?hse Onkelz

[Intro]

e|------------------------|
B|------0-----------------|
G|----------2-4-5---------|
D|------------------------|
A|-----------------2-3~~--|
E|--0---------------------|(x4)

[Verse 1]

e|---------------------------------------------------------------------------------------|
B|---------------3------------------------3---------------3---------------3--------------|
G|------------0-----0------------------0-----0---------0-----0---------0-----0-----------|
D|---------0------------------------0---------------0----------------0-------------------|
A|---------------------------------------------------------------------------------------|
E|----3-------------------------3---------------2----------------2------------------0----|
       Ich zeige dir, was es hei?t allein zu sein - Ich trinke Tr?nen schwarzen Wein

e|-------------------------------------------0----------------------------0---------------|
B|--------3----------------3--------------3-----3----------------------3-----3------------|
G|-----0-----0----------0-----0--------0----------------------------0------------0--------|
D|--2----------------2--------------------------------------------------------------------|
A|---------------------------------3----------------------------3-------------------------|
E|---------------0-----------------------------------------------------------------3------|
Ich folge dir tief, tief in die Nacht, bis den Abgrund deiner Seele steige ich hinab

Ich suche nach der, die mich zum Weinen bringt - Liebe macht s?chtig, betrunken und blind
Ich suche nach dem Weg aus der Leere - die mein Leben bestimmt

[Bridge]

e|-----------------------------------------------0------|
B|-------7--7---------5--5---------3---3-----------3----|
G|-----0--0---0-----0------0-----0-------0-----0-----0--|
D|------------------------------------------------------|
A|--7------------5-------------3------------3-----------|
E|------------------------------------------------------|(x2)

               Ich la? es Tr?nen regnen

[Refrain]
                              G5                        G5    [3 5 5 x x 3]
Bin ich nur gl?cklich wenn es schmerzt                  F#5   [2 4 4 x x 2]
F#5                           E5                        C5    [x 3 5 5 x 3]
Bin ich nur gl?cklich wenn es schmerzt                  E5    [0 2 x x x 0]
C5                             G5
Ich schenk dir mein gefror'nes Herz
F#5                         E5       C5   C5 
Ich will das du es f?r mich w?rmst


Zwischenspiel: 2x Intro-Riff

[Verse 2]

Ich verirre mich, nichts ist mehr klar. Ich bin da wo vor mir keiner war
Nicht f?hig zu lieben, oder liebe ich die Qual, liebe ich den Schmerz bin ich nicht normal
Ich suche nach der die meinen Geist nach Hause bringt, ich suche dnach der f?r die ich diese Lieder sing
Nur eine Nacht in meinem Zimmer, wie wachen auf und leben f?r immer

[Bridge]  (wie oben)

[Refrain] (wie oben)

[Solo]

e|------0-------------------------------------0--------------------------------------|
B|----3---3-----3---------------------------3---3-----3------------------------------|
G|--0-------4-5---5-4---------------------0-------4-5---5-4-2-4~~--0-0-----0-4--0-0--|
D|--------------------5-4~~~-----5-4~~~----------------------------------0-----------|
A|-----------------------------------------------------------------------------------|
E|-----------------------------------------------------------------------------------|

e|-----------------------------------------------------------------------------------|
B|--------------------------------------------------15b------------15b---------------|
G|-2/12~~~~~~~~~-9-12-14-16-14-12-11~~~----12-11~~~-----12-12-9-12-----12-12-9-12----|
D|-----------------------------------------------------------------------------------|
A|-----------------------------------------------------------------------------------|
E|-----------------------------------------------------------------------------------|

e|-----------------------------------------------------------------------------------|
B|-----------------------------------------------------------------------------------|
G|-14-16-14-12-14-16-12-14~~~--------------------------------------------------------|
D|-----------------------------------------------------------------------------------|
A|-----------------------------------------------------------------------------------|
E|-----------------------------------------------------------------------------------|

[Refrain] 
(wie oben) (x2)

[Outro]
(2x Intro-Riff)

G5        or   G(no 3rd) [3 5 5 x x 3]
F5        or   F(no 3rd) [1 3 3 x x 1]
C5        or   C(no 3rd) [x 3 5 5 x 3]
E5        or   E(no 3rd) [0 2 x x x 0]

Gru? SoX a.K.a. S?nke
P.S.: Die kommt nicht von mir, aber hab die Tabulatur mal irgentwo gefunden und dachte mir die sollte f?r 
zug?nglich sein!



************************************

| ~  Vibrato
| b  Bend
| /  Slide up

************************************

            
            
Suggest correction
Creating personal tab
Creating personal tab
You can edit any tab online and save it as your Personal.

You can edit, replace or remove any tab part or add personal notes – all changes will be seen only by you.

Personal tabs can be accessed anytime from any device, even offline.
Learn more »
comments
print report bad tab
1 comment total.
0 reply
OnkelFritz 10 Oct 24, 2006 07:03 AM

not that bad, but the beginning sounds better like that:

------------------------|
------0-----------------|
---------0--------------|
--------------2---------| 4x
-----------------2-3~~--|
--0---------------------|

guest
Wanna post a correction for this tab? Suggest correction