Oops, an error
Loading. Please wait.

Wieder Mal Nen Tag Verschenkt tab

version 1
version 1

Whole song

Interactive

86,600 views 150 this week
3 commentsread comments
1 2 3 4 5
x 14
add to favorites
×
Save as Personal and add changes to this tab that will be seen only by you. Learn more ›
×
You can save this tab as Personal to edit and correct it or add notes. All changes will be seen only by you. Learn more »
launch autoscroll
font size
0
reset
how to read this tab
guitar tuner
edit
Autoscroll
slow
fast
+/-
esc
set tempo
stop
Author
Unregistered
Wiedermal 'nen Tag verschenkt - B?hse Onkelz

[Intro]
           Em                G                   Am          Em
e|-------|-----------------|-------------------|-5-8-5~~---|--------------------|
B|--8/10-|-5~~-5-3-0-5~~-8-|-5~~-8-8-5-0-8~~-5-|-----------|-8---8---8---5-3-0--|
G|-------|-----------------|-------------------|-----------|---9---9---9--------|
D|-------|-----------------|-------------------|-----------|--------------------|
A|-------|-----------------|-------------------|-----------|--------------------|
E|-------|-----------------|-------------------|-----------|--------------------|

    Em            G                   Am                 C
e|--------------|---------------7---|------------------|--------------------|
B|--5---8-5/----|--8--8-5-0-8~~---8-|-10-10-10-8-------|-8---8---8---5-3-0--|
G|-----------12-|-------------------|------------7-9~~-|---9---9---9--------|
D|--------------|-------------------|------------------|--------------------|
A|--------------|-------------------|------------------|--------------------|
E|--------------|-------------------|------------------|--------------------|
                                                                  Mmm, ein
    Em                        G
Ein neuer Tag beginnt auf der Suche nach dem Sinn
    Am                            Em
dem Sinn in meinem Leben doch ich kann ihn nicht finden
Em                                          G
War's das schon, kann das alles sein ?  Was kommt danach, wann ist's vorbei ?
Am                              Em
Wer kennt die Antwort auf diese Fragen ?
    Em                             G
Die Tage vergehn, nichts passiert, nichts ist geschehn und es rebelliert
       Am                                     Em
in den Falten meines Hirn in den Ecken meiner Seele, meiner Seele, meiner...

[Refrain]
  F      C               G
   Wiedermal 'nen Tag verschenkt              mmh
e|-------------------------------|------------5--3--------|
B|-------------------------------|------------------5--3--|
G|---------5------7---5----------|------------------------|
D|----5-7-------7-------7-5------|------------------------|
A|--------------------------7-5--|------------------------|
E|-------------------------------|------------------------|

  F      C               G
   Wiedermal 'nen Tag verschenkt
e|-------------------------------|------------5--3-----------------|
B|-------------------------------|------------------5--3-----8/10--|
G|---------5------7---5----------|---------------------------------|
D|----5-7-------7-------7-5------|---------------------------------|
A|--------------------------7-5--|---------------------------------|
E|-------------------------------|---------------------------------|

[Zwischenspiel]
   Em                G                      Am                Em
e|-----------------|-3-3-3-0--------6-6-3-|---5-5-3-0-5-3-0-|--------------------|
B|-5~~-5-3-0-5~~-3-|---------3-8~~~-------|-5---------------|-8-5~~-8-5~~-5-3-0--|
G|-----------------|----------------------|-----------------|--------------------|
D|-----------------|----------------------|-----------------|--------------------|
A|-----------------|----------------------|-----------------|--------------------|
E|-----------------|----------------------|-----------------|--------------------|

    Em                             G
Die Tage vergehn, nichts passiert, nichts ist gescheh'n und es rebelliert
       Am                          Em
in den Falten meines Hirns, in den Ecken meiner Seele
        Em                                          G
Ich hab n?chtelang gezecht, mich ins Koma gesoffen, oft gezielt, doch nie getroffen
Am                               Em
Ich wei? wie es ist der Arsch zu sein

[Refrain]
  F      C               G
   Wiedermal 'nen Tag verschenkt              mmh
e|-------------------------------|------------5--3--------|
B|-------------------------------|------------------5--3--|
G|---------5------7---5----------|------------------------|
D|----5-7-------7-------7-5------|------------------------|
A|--------------------------7-5--|------------------------|
E|-------------------------------|------------------------|

  F      C               G
   Wiedermal 'nen Tag verschenkt
e|-------------------------------|------------5--3-----------------|
B|-------------------------------|------------------5--3-----8/10--|
G|---------5------7---5----------|---------------------------------|
D|----5-7-------7-------7-5------|---------------------------------|
A|--------------------------7-5--|---------------------------------|
E|-------------------------------|---------------------------------|

[Solo]
   Em                        G                   Am
e|-------------------------|-------------------|-------5~~-------5~~-7-5--|
B|-------------------------|-------------------|-5-7-8-----5-7-8----------|
G|-------------------------|-------------------|--------------------------|
D|-------------------------|-2-0---0~~---------|--------------------------|
A|-------2~~-------2~~-3-2-|-----3-----2-3-2---|--------------------------|
E|-0-2-3-----0-2-3---------|-----------------3-|--------------------------|

    C                 Em
e|------------------|---12p10-12p10h12-12-10b-10-7-|--------------------------------|
B|--5-3~~-5-3-0~~---|---12p10-12p10h12-12----------|-10-8-10b-10-8-7-8~~------------|
G|----------------0-|------------------------------|------------------------12-14b--|
D|------------------|------------------------------|---------------------14---------|
A|------------------|------------------------------|--------------------------------|
E|------------------|------------------------------|--------------------------------|

    Am                                      G                                          Em
e|---------12----------------15b-15-12-10-|------------------------------------------|------|
B|------12----12-15b-15-12~~--------------|-12-15b-15----------------------15-12-15b-|-15b--|
G|--14b-----------------------------------|-----------14-12----------12-14-----------|------|
D|----------------------------------------|-----------------14-12-14-----------------|------|
A|----------------------------------------|------------------------------------------|------|
E|----------------------------------------|------------------------------------------|------|

[Piano Solo]    G  /  Am   /  C  /  C

[Refrain] x2
  F      C               G
   Wiedermal 'nen Tag verschenkt              mmh
e|-------------------------------|------------5--3--------|
B|-------------------------------|------------------5--3--|
G|---------5------7---5----------|------------------------|
D|----5-7-------7-------7-5------|------------------------|
A|--------------------------7-5--|------------------------|
E|-------------------------------|------------------------|

  F      C               G
   Wiedermal 'nen Tag verschenkt
e|-------------------------------|------------5--3-----------------|
B|-------------------------------|------------------5--3-----8/10--|
G|---------5------7---5----------|---------------------------------|
D|----5-7-------7-------7-5------|---------------------------------|
A|--------------------------7-5--|---------------------------------|
E|-------------------------------|---------------------------------|

[Outro]
    Em                   G               Am              Em
e|--12-12-10----12~~---|---------3~~-0-|-5-5-3-0-5~~-0-|-----12------------0--|
B|-----------12--------|-8-8-5-3-------|---------------|-/12-------------0----|
G|-------------------7-|---------------|---------------|---------------0------|
D|---------------------|---------------|---------------|-------------2--------|
A|---------------------|---------------|---------------|-----------2----------|
E|---------------------|---------------|---------------|---------0------------|

************************************

| ~  Vibrato
| /  Slide up
| h  Hammer-on
| p  Pull-off
| b  Bend

************************************
Suggest correction
Creating personal tab
Creating personal tab
You can edit any tab online and save it as your Personal.

You can edit, replace or remove any tab part or add personal notes – all changes will be seen only by you.

Personal tabs can be accessed anytime from any device, even offline.
Learn more »
comments
print report bad tab
3 comments total.
0 reply
aut.RiPPeR 229 Feb 23, 2006 11:59 AM

Great Work!

greetz
chris

0 reply
Gunny. 31 Jul 21, 2008 12:18 PM

i cant do anything with this tab.

0 reply
eri123 10 Jan 31, 2010 02:42 AM

Hello,

very good transcription and so helpful.

Erich

guest
Wanna post a correction for this tab? Suggest correction