Oops, an error
Loading. Please wait.

The Hill tab

version 1
version 1

Whole song

Interactive

9,178 views 9 this week
no commentswrite comment
1 2 3 4 5
2 more votes to show rating
add to favorites
×
Save as Personal and add changes to this tab that will be seen only by you. Learn more ›
×
You can save this tab as Personal to edit and correct it or add notes. All changes will be seen only by you. Learn more »
launch autoscroll
font size
0
reset
how to read this tab
guitar tuner
edit
Autoscroll
slow
fast
+/-
esc
set tempo
stop
Author
Difficulty
-------------------------------------------------------------------------------
                             The Hill - Marketa Irglova
-------------------------------------------------------------------------------
Tabbed by: BiGFooT-cz


Hi here are the tabs for my favourite song.

Verse: (repeat until she stops singing)

  G#mi         D#5+         B            E            E
e 4----------- ------------ ------------ ------------ ------------|
b ----7---5--- 4---2---4--- 4---2---4--- 0---2---4--- 0---2---4---|
g --4---4---4- --0---0---0- --4---4----- --1---1---1- --1---1---1-|
D ------------ ------------ ----------4- ------------ ------------|
A ------------ 4----------- 2----------- ------------ ------------|
E 4----------- ------------ ------------ 0----------- 0-----------|



Bridge: (if your fingers hurt, play only chords:) )

e 76----76---- 6-4---6-4--- 76----76---- 6-4---------|
b --4-----4--- ----2-----2- --4-----4--- ----2-------|
g -----4-----4 -3-3-3-3-3-3 -----4-----4 -3-3-3------|
D ----6-----6- ------------ ----6-----6- ------------|
A ---6-----6-- ------------ ---6-----6-- ------------|
E 4-----4----- 2-----2----- 4-----4----- 2-----------|

I also add the right lyrics (I've seen many mistakes on the net..)

Walking up the hill tonight
When you have closed your eyes
I wish I didn't have to make all those mistakes and be wise
Please try to be patient and know that I'm still learning
I'm sorry that you have to see the strength inside me burning

Where are you my angel now
Don't you see me crying
I know that you can do it all
But you can't say I'm not trying
I'm on my knees in front of him
But he doesn't seem to see me
For all his troubles on his mind, he's looking right through me
And I'm letting myself down by satisfying you
And I wished that you could see I have my troubles too

Lookin' at you sleeping
I'm with a man I know
I'm sitting here weeping while the hours pass so slow
And I know that in the morning I have to let you go
And you'll be just a man once I used to know
For these past few days someone I don't recognize
This isn't all my fault
When will you realize

Looking at you leaving
I'm looking for a sign

            
            
Suggest correction
Creating personal tab
Creating personal tab
You can edit any tab online and save it as your Personal.

You can edit, replace or remove any tab part or add personal notes – all changes will be seen only by you.

Personal tabs can be accessed anytime from any device, even offline.
Learn more »
Give kudos to tab author, rate the tab!
1 2 3 4 5
comments
print report bad tab
guest
You may want to rate the tab now too:
select rating
Wanna post a correction for this tab? Suggest correction