Oops, an error
Loading. Please wait.

Little Light Of Love intro tab

4,862 views 3 this week
2 commentsread comments
1 2 3 4 5
x 3
add to favorites
×
Save as Personal and add changes to this tab that will be seen only by you. Learn more ›
×
You can save this tab as Personal to edit and correct it or add notes. All changes will be seen only by you. Learn more »
launch autoscroll
font size
0
reset
how to read this tab
guitar tuner
edit
Autoscroll
slow
fast
+/-
esc
set tempo
stop
Difficulty
This into riff is featured in the song for the credits of "The Fifth Element"

Standard Tuning

E----------------------------|
A-12-10----------------------|
D-------10~-------9-8----8.--|
G------------9-10-----10---9-|
B----------------------------|
E----------------------------|


PS. I like using these two effects together for this riff: phaser + tape echo

            
            
Suggest correction
Creating personal tab
Creating personal tab
You can edit any tab online and save it as your Personal.

You can edit, replace or remove any tab part or add personal notes – all changes will be seen only by you.

Personal tabs can be accessed anytime from any device, even offline.
Learn more »
Give kudos to tab author, rate the tab!
1 2 3 4 5
comments
print report bad tab
2 comments total.
0 reply
irishmatt1992 895 Jul 20, 2010 09:47 PM

you should dod the whole song dude

0 reply
grangeramp 10 Sep 05, 2012 09:28 AM

Corrected version for melody line:

E--------|----------------------------|---------------------|
A--12-10-|----------------------12-10-|---------------------|
D--------|11~-------9-8----8----------|11~-------9-8----8~--|
G--------|----9-10-----10---9~--------|-----9-10-----10-----|
B--------|----------------------------|---------------------|
E--------|----------------------------|---------------------|

guest
Wanna post a correction for this tab? Suggest correction