Oops, an error
Loading. Please wait.

Shout At The Devil bass

version 4
version 4

Whole song

Interactive

23,267 views 12 this week
8 commentsread comments
1 2 3 4 5
x 11
add to favorites
×
Save as Personal and add changes to this tab that will be seen only by you. Learn more ›
×
You can save this tab as Personal to edit and correct it or add notes. All changes will be seen only by you. Learn more »
launch autoscroll
font size
0
reset
guitar tuner
backing track
0:00
0:00
edit
Autoscroll
slow
fast
+/-
esc
set tempo
stop
Author
Difficulty
intermediate
[Intro]
G|-------------------------------------------------------------------|
D|-------------------------------------------------------------------|
A|-------------------------------------------------------------------|
E|—5/-----5/------5/-----5/----5/-----5/-----5/-----5/-----5/-----5/-|

(When Lead singer comes in play this:)
G|---------------|
D|-----5---------|
A|--345-5-3------|
E|---------------|

G|----------------------------------|
D|-------------------------5--------|
A|----0-3---0-5---0-3—-345—-5-3-----|
E|-5-5---5-5---5-5------------------|(x2)

[Verse 1]
G|----------------------------------------------------------|
D|---------------------------------------------5-3----------|
A|-3--1-----1--3--1---------3--1-----1--3--1-------5-4------|
E|-----3-3-3-----------3--------3-3-3-----------------------|

G|------------------------------------------------------------|
D|--------------------------------------5-3-------------------|
A|-3--1-----1--3--1---------3--1-----1----- 5-3--1------------|
E|-----3-3-3-----------3--------3-3-3-------------3-----------|

[Chorus]
G|----------------------------------|
D|-------------------------5--------|
A|----0-3---0-5---0-3—-345—-5-3-----|
E|-5-5---5-5---5-5------------------|(x2)

[Verse 2]
G|---------------------------------------------10--9--9--9----------|
D|---------------------------------------------10-10-10-10----------|
A|-3--1------1--3--1--------3--1--------1--3--1---------------------|
E|------3-3-3----------3---------3-3-3------------------------------|

G|------------------------------------------------------------|
D|--------------------------------------5-3-------------------|
A|-3--1-----1--3--1---------3--1-----1----- 5-3--1------------|
E|-----3-3-3-----------3--------3-3-3-------------3-----------|

[Chorus]
G|----------------------------------|
D|-------------------------5--------|
A|----0-3---0-5---0-3—-345—-5-3-----|
E|-5-5---5-5---5-5------------------|(x2)

[Guitar Solo]
G|----------------------------------|
D|-------------------------5--------|
A|----0-3---0-5---0-3—-345—-5-3-----|
E|-5-5---5-5---5-5------------------|(x4)

[Verse 3]
G|----------------------------------------------------------|
D|---------------------------------------------5-3----------|
A|-3--1-----1--3--1---------3--1-----1--3--1-------5-4------|
E|-----3-3-3-----------3--------3-3-3-----------------------|

G|------------------------------------------------------------|
D|--------------------------------------5-3-------------------|
A|-3--1-----1--3--1---------3--1-----1----- 5-3--1------------|
E|-----3-3-3-----------3--------3-3-3-------------3-----------|

[Chorus]
G|----------------------------------|
D|-------------------------5--------|
A|----0-3---0-5---0-3—-345—-5-3-----|
E|-5-5---5-5---5-5------------------|(x2)

G|--------------------------------------------------------------------|
D|-----------------------------------------------5--------------------|
A|--------------------------------------------345-5-3-----------------|
E|-5-55-5555--5-55-5555--5-55-5555--5-55-5555---------3---------------|


************************************

| /  Slide up

************************************

            
            
Suggest correction
Creating personal tab
Creating personal tab
You can edit any tab online and save it as your Personal.

You can edit, replace or remove any tab part or add personal notes – all changes will be seen only by you.

Personal tabs can be accessed anytime from any device, even offline.
Learn more »
comments
print report bad tab
8 comments total. Showing first comments.
0 reply
NoDeadHeroes 10 Jul 01, 2008 09:34 AM

Sorry dude, but this isn't good either. Proper tab coming up...

-2 reply
TheBestBassist 10 Aug 20, 2008 02:04 AM

CORRECT!!!!!!!! All the others do suck !!!!!!!!DONKEY DICK!!!!!!!!

-1 reply
TheBestBassist 10 Aug 20, 2008 09:20 PM

To NoDeadHeroes
Fine, make a "BETTER" Shout at the Devil tab and i will decide which is better.

guest
You may want to rate the tab now too:
select rating
Wanna post a correction for this tab? Suggest correction