Oops, an error
Loading. Please wait.

Saints Of Los Angeles bass

version 1
version 1

Whole song

Interactive

16,041 views 1 this week
16 commentsread comments
1 2 3 4 5
x 5
add to favorites
×
Save as Personal and add changes to this tab that will be seen only by you. Learn more ›
×
You can save this tab as Personal to edit and correct it or add notes. All changes will be seen only by you. Learn more »
launch autoscroll
font size
0
reset
guitar tuner
backing track
0:00
0:00
edit
Autoscroll
slow
fast
+/-
esc
set tempo
stop
Artist:Motley Crue
Song:Saints Of Los Angeles (S.O.L.A.)
Album:The Dirt
Bassist:Nikki Sixx
Tabber:Dev Fuld

This is Motley Crue's first new original in a couple of years. It's a great song, and it 
does Rock.
It's very Dr.Feelgood meets Too Fast-esque.
Anyway, I'm about 98% sure of this tab.

Key:
x = Times a number
* = Let it ring
/ = Slide up


Intro
F:---------|--------|---------|--------|---------|--------|
C:---------|--------|---------|--------|---------|--------|
G:0x12-----|0x12-1*-|0x12-----|0x12-1*-|0x12-----|0x12-1*-|
D:-----3*--|--------|-----3*--|--------|-----3*--|--------|

F:---------|-----------|
C:---------|-----------|
G:0x12-----|0x8--------|
D:-----3*--|----3-3-3-3|

Verse 1
F:----------------------|------------------|
C:----------------------|------------------|
G:0x28-1*--3x16------1*-|0x28-1*--3x16-----|
D:--------------3x12----|--------------3x16|

Pre-Chorus
F:-----------------|-----------------|-----------------|
C:-----------------|-----------------|-----------------|
G:-----------------|-----------------|-----------------|
D:0*--0--0-0--0--0*|0*--0--0-0--0--0*|0*--0--0-0--0--0*|

F:--------------|
C:--------------|
G:--------------|
D:0*-1*-2*-3*-4*|

Chorus 1
F:-------------|-------------|-------------|-------------|
C:-------------|-------------|-------------|-------------|
G:0*-0*-0*-----|5*-5*-5*-----|0*-0*-0*-----|5*-5*-5*-----|
D:---------1-1*|---------3-3*|---------1-1*|---------3-3*|

F:-------------|-------------|-----------------|
C:-------------|-------------|-----------------|
G:0*-0*-0*-----|5*-5*-5*-----|-----------------|
D:---------1-1*|---------3-3*|1-1-1-1-1-1-1-1-3|

After Chorus
F:---------|--------|---------|-----------|
C:---------|--------|---------|-----------|
G:0x12-----|0x12-1*-|0x12-----|0x8--------|
D:-----3*--|--------|-----3*--|----3-3-3-3|

Verse 2
F:------------------|--------------------|
C:------------------|--------------------|
G:0x28-1*--3x16-----|0x24/12-12-12-12-12*|
D:--------------3x16|--------------------|

Pre-Chorus

Chorus 2
F:-------------|-------------|-------------|-------------|
C:-------------|-------------|-------------|-------------|
G:0*-0*-0*-----|5*-5*-5*-----|0*-0*-0*-----|5*-5*-5*-----|
D:---------1-1*|---------3-3*|---------1-1*|---------3-3*|

F:-------------|-------------|-------------------------------|
C:-------------|-------------|-------------------------------|
G:0*-0*-0*-----|5*-5*-5*-----|-------------------------------|
D:---------1-1*|---------3-3*|1-1-1-1-1-1-1-1-3-3-3-3-3-3-3-3|

Solo
F:-------------|-------------|-------------|-------------|
C:-------------|-------------|-------------|-------------|
G:0*-0*-0*-----|5*-5*-5*-----|0*-0*-0*-----|5*-5*-5*-----|
D:---------1-1*|---------3-3*|---------1-1*|---------3-3*|

F:-------------|-------------|
C:-------------|-------------|
G:0*-0*-0*-----|5*-5*-5*-----|
D:---------1-1*|---------3-3*|

Bridge ("Give it up, Give it up")
F:----------------|----------------|----------------|----------------|
C:----------------|----------------|----------------|----------------|
G:----------------|------------1*-1|----------------|------------1*-1|
D:0-0-0-0-0-0-3*-3|0-0-0-0-0-0-----|0-0-0-0-0-0-3*-3|0-0-0-0-0-0-----|

F:----------------|----------------|----------------|
C:----------------|----------------|----------------|
G:----------------|------------1*-1|----------------|
D:0-0-0-0-0-0-3*-3|0-0-0-0-0-0-----|0-0-0-0-0-0-3*-3|

F:---------------|---------------|
C:---------------|---------------|
D:---------------|---------------|
G:0*-1*-2*-3*-4*-|0*-1*-2*-3*-4*-|

Chorus 2

Chorus 1


There ya go! All you really gotta do is pay attention to the timing and whatnot. I put 
in order for ya and everything. You're all set to go kick some ass! Any comments or 
e-mail me at rocklvson@yahoo.com

            
            
Suggest correction
Creating personal tab
Creating personal tab
You can edit any tab online and save it as your Personal.

You can edit, replace or remove any tab part or add personal notes – all changes will be seen only by you.

Personal tabs can be accessed anytime from any device, even offline.
Learn more »
comments
print report bad tab
16 comments total. Showing first comments.
+2 reply
A7X43 40 Apr 20, 2008 04:18 AM

It's not Drop D, it's D Standard. Which is (low to high): DGCF

0 reply
PUNKfromNORWAY 113 Apr 20, 2008 11:37 AM

so what? the tab is good, sounds right to me

+3 reply
A7X43 40 Apr 20, 2008 05:33 PM

I didn't say it was bad, just that it's not drop D.

guest
You may want to rate the tab now too:
select rating
Wanna post a correction for this tab? Suggest correction