Oops, an error
Loading. Please wait.

Going Missing bass

1,325 views 1 this week
no commentswrite comment
1 2 3 4 5
3 more votes to show rating
add to favorites
×
Save as Personal and add changes to this tab that will be seen only by you. Learn more ›
×
You can save this tab as Personal to edit and correct it or add notes. All changes will be seen only by you. Learn more »
launch autoscroll
font size
0
reset
guitar tuner
edit
Autoscroll
slow
fast
+/-
esc
set tempo
stop
I noticed that there is not a single bass tab for this song on the internet (I don't 
so I decided to share my bearing by ear version.

Tuning: Standard E,A,D,G.

Guitar Intro

0:12

|-----7-7-7-7-7-7-------------------7-7-7-7-7-7------------------|
|--------------------5-5-5-5-5-5-------------------5-5-5-5-5-5---|
|555-5-5-5-5-5-5-52--------------3-5-5-5-5-5-5-52--------------3-|
|-------------------3-3-3-3-3-3-3-----------------3-3-3-3-3-3-3--|

|-7-7-7-7-7-7-------------------7-7-7-7-7-7------------------|
|----------------5-5-5-5-5-5-------------------5-5-5-5-5-5---|
|5-5-5-5-5-5-52--------------3-5-5-5-5-5-5-52--------------3-|
|---------------3-3-3-3-3-3-3-----------------3-3-3-3-3-3-3--|

|------------------------------------------------------------------|
|------------------------------------------------------------------|
|33333333222222225555555555555555-33333333222222225555555555555555-|
|------------------------------------------------------------------|

|---------------------------------------------------------------|
|---------------------------------------------------------------|
|55555555555555555555555555555555-3-333-2-2-222-5-5-555-5-5-555-|
|---------------------------------------------------------------|

Guitar Post-Chorus

|-----7-7-7-7-7-7-------------------7-7-7-7-7-7------------------|
|--------------------5-5-5-5-5-5-------------------5-5-5-5-5-5---|
|555-5-5-5-5-5-5-52--------------3-5-5-5-5-5-5-52--------------3-|
|-------------------3-3-3-3-3-3-3-----------------3-3-3-3-3-3-3--|

|-7-7-7-7-7-7-------------------7-7-7-7-7-7------------------|
|----------------5-5-5-5-5-5-------------------5-5-5-5-5-5---|
|5-5-5-5-5-5-52--------------3-5-5-5-5-5-5-52--------------3-|
|---------------3-3-3-3-3-3-3-----------------3-3-3-3-3-3-3--|

|------------------------------------------------------------------|
|------------------------------------------------------------------|
|33333333222222225555555555555555-33333333222222225555555555555555-|
|------------------------------------------------------------------|

|---------------------------------------------------------------|
|---------------------------------------------------------------|
|55555555555555555555555555555555-3-333-2-2-222-5-5-555-5-5-555-|
|---------------------------------------------------------------|

Guitars

2:13

|-7-7-7-7-9-9-9-9-7-7-7-7-9-9-9-9-|
|---------------------------------|
|5-5-5-5-7-7-7-7-5-5-5-5-7-7-7-7--|
|---------------------------------|

|-7-7-7-7-9-9-9-9-7-7-7-7-9-9-9-9-|
|---------------------------------|
|5-5-5-5-7-7-7-7-5-5-5-5-7-7-7-7--|
|---------------------------------|

|----------------|
|----------------|
|5555555555555555|
|----------------|

|---------------------------------------------------------------|
|---------------------------------------------------------------|
|55555555555555555555555555555555-3-333-2-2-222-5-5-555-5-5-555-|
|---------------------------------------------------------------|

|---------------------------------------------------------------|
|---------------------------------------------------------------|
|55555555555555555555555555555555-3-333-2-2-222-5-5-555-5-5-555-|
|---------------------------------------------------------------|

|------------------------------------------------------------------|
|------------------------------------------------------------------|
|55555555555555555555555-5-5-3-2-----3-333-2-2-222-5-5-555-5-5-555-|
|--------------------------------3-5-------------------------------|

Guitar Outro

That was by ear on my itunes lol. Comment me on my UG profile if you find a mistake.
Suggest correction
Creating personal tab
Creating personal tab
You can edit any tab online and save it as your Personal.

You can edit, replace or remove any tab part or add personal notes – all changes will be seen only by you.

Personal tabs can be accessed anytime from any device, even offline.
Learn more »
Give kudos to tab author, rate the tab!
1 2 3 4 5
comments
print report bad tab
guest
You may want to rate the tab now too:
select rating
Wanna post a correction for this tab? Suggest correction