Oops, an error
Loading. Please wait.

Lethal Industry tab

version 1
version 1

Whole song

Interactive

by Tiësto
6,563 views 1 this week
3 commentsread comments
1 2 3 4 5
1 last vote to show rating
add to favorites
×
Save as Personal and add changes to this tab that will be seen only by you. Learn more ›
×
You can save this tab as Personal to edit and correct it or add notes. All changes will be seen only by you. Learn more »
launch autoscroll
font size
0
reset
how to read this tab
guitar tuner
edit
Autoscroll
slow
fast
+/-
esc
set tempo
stop
DJ Tiesto - Lethal Industry

Not a rock song or anything but its a cool riff to play on the guitar, can be played on any string really

e---0--0--3--0--0--0--7--0--0--0--7--0--3--8--8--8--8--3--3--3----|
B-----------------------------------------------------------------|
G-----------------------------------------------------------------|
D-----------------------------------------------------------------|
A-----------------------------------------------------------------|
E-----------------------------------------------------------------|


e---7--7--7--7--8--8--8--10--10--10--7--12--12--12--12--10--12--12-|
B------------------------------------------------------------------|
G------------------------------------------------------------------|
D------------------------------------------------------------------|
A------------------------------------------------------------------|
E------------------------------------------------------------------|


e---12--12--12----------------------------------------------------|
B-----------------------------------------------------------------|
G-----------------------------------------------------------------|
D-----------------------------------------------------------------|
A-----------------------------------------------------------------|
E-----------------------------------------------------------------|

Repeat as many times as you want

simon@teenzcity.co.uk

            
            
Suggest correction
Creating personal tab
Creating personal tab
You can edit any tab online and save it as your Personal.

You can edit, replace or remove any tab part or add personal notes – all changes will be seen only by you.

Personal tabs can be accessed anytime from any device, even offline.
Learn more »
Give kudos to tab author, rate the tab!
1 2 3 4 5
comments
print report bad tab
3 comments total. show 1 bad comment
0 reply
Zmajo 10 Sep 06, 2005 08:00 PM

hehe, this is my favourite :)
thx m8 :D

0 reply
Lawibanez 10 Dec 03, 2006 12:18 AM

lolz its cool :D but i think the last 8 must go on B
e---0--0--3--0--0--0--7--0--0--0--7--0--3--8--8--8-----3--3--3----|
B---------------------------------------------------8-------------|

guest
Wanna post a correction for this tab? Suggest correction