Oops, an error
Loading. Please wait.

Heroe De Leyenda tab

version 1
version 1

Whole song

Interactive

51,484 views 24 this week
no commentswrite comment
1 2 3 4 5
x 4
add to favorites
×
Save as Personal and add changes to this tab that will be seen only by you. Learn more ›
×
You can save this tab as Personal to edit and correct it or add notes. All changes will be seen only by you. Learn more »
launch autoscroll
font size
0
reset
how to read this tab
guitar tuner
backing track
0:00
0:00
edit
Autoscroll
slow
fast
+/-
esc
set tempo
stop
Author
[Intro]
    Gm                              D#                                       D
e|---------------------------------|---------------------------------------|-----------------------|
B|---------------------------------|-----------------4----4-----4-----4----|-----------------------|
G|--3-----3-----3------3---3--3--2-|---------------------------------------|-2-----2-----2------2--|
D|-----5-----5------5--------------|-5--3--5---3--5----5-----5-------------|----4-----4------4-----|
A|---------------------------------|---------------------------------------|-----------------------|
E|---------------------------------|---------------------------------------|-----------------------|

                        Gm
e|---------------------|----------3---------------------------|
B|---------------------|-------3-----3-----4p3---4p3-----3----|
G|--2--3--2h3p2--------|----3-----------3------3------3-------|
D|----------------5--4-|-5------------------------------------|
A|---------------------|--------------------------------------|
E|---------------------|--------------------------------------|

[Verse 1]
   Gm                                   D# 
   Siem pre   en   la      oscurida   d
e|-------------------------3----------|----------3--------------------6----------------------------|
B|-------------------3--------3-------|-----4------4-------6----4--------4-------------------------|
G|-3----3-----3---------3--------3----|---3---3-------3---------------------3----------------------|
D|---5-----5-----5------------------3-|-5---------------5-----5----5-----------5-------------------|
A|------------------------------------|------------------------------------------------------------|
E|------------------------------------|------------------------------------------------------------|

   D                                    Gm
   La   vo z   no   tie  ne   se  ntido
e|--------2-----------3------2--------|--------------3--------------------3------------------------|
B|---3-------3-----3----3------3----2-|-----------3-----3--------------3-----3---------------------|
G|-2---2--------2---------2------2----|--3----3------------3------3-------------3------------------|
D|-0----------------------------------|--5--5------------------5-----------------------------------|
A|------------------------------------|--5---------------------------------------------------------|
E|------------------------------------|-(3)--------------------------------------------------------|

   Gm                                   D#
   E_l    Si__le___ncio__  lo   es    todo
e|------------------------3-----------|---------3--------------------------------------------------|
B|------------------3--------3--------|----4------4----4---4-/-8---8------8------------------------|
G|-3----3-----3--------3--------3-----|-3-----3-----3------------------8-----8---------------------|
D|---5-----5-----5-----------------3--|-5----------------------------------------------------------|
A|------------------------------------|------------------------------------------------------------|
E|------------------------------------|------------------------------------------------------------|

   D                                    Gm
   héroe__ en_   su__  propio_____   o___lvido
                                                                     sl
e|-----------------5--5-6--5h6p5------|------------------------------------------------------------|
B|--7----7---7--------------------8-7-|-8----8-----8-----8---8--8---8-/----------------------------|
G|--7-----------7---------------------|----7----7-----7--7---7--7---7-/----------------------------|
D|--7--7---7--------------------------|------------------------------------------------------------|
A|------------------------------------|------------------------------------------------------------|
E|------------------------------------|------------------------------------------------------------|

[Chorus] 
  Bm                                   Em
     E___n    sus    o_jo_____s    apaga____do__s
 
e|-(2)-----------2----2-------------2-|--7-------------7--7----------------------------------------|
B|--3--3----2h3-------3---3-----2h3---|--8--8-----7h8--8-----8-----7h8--7h8------------------------|
G|--4----4------------4------4--------|--9-----9-------9--------9----------------------------------|
D|--4-----------------4---------------|--9-------------9-------------------------------------------|
A|--2----------------(2)--------------|------------------------------------------------------------|
E|--2----------------(2)--------------|------------------------------------------------------------|

  Bm                                   Em
     Ha_y un   e_te______rno_     ca__stigo_____

e|-(2)-----------2----2-------------2-|--7-------------7--7-------------7--------------------------|
B|--3--3----2h3-------3---3-----2h3---|--8--8-----7h8--8-----8-----7h8-----------------------------|
G|--4----4------------4------4--------|--9-----9-------9--------9----------------------------------|
D|--4-----------------4---------------|--9-------------9-------------------------------------------|
A|--2----------------(2)--------------|------------------------------------------------------------|
E|--2----------------(2)--------------|------------------------------------------------------------|

    A                                F#                               G
    El  héroe  de  le_ye__nda__  pertenece_ a__l  sueño  de__u_n  destino______

e|---9---9---9---9---9---9---9---9--|-6---6---6---6---6---6---6---6--|-7---7---7---7---7---7---7---|
B|--10--10--10--10--10--10--10--10--|-7---7---7---7---7---7---7---7--|-8---8---8---8---8---8---8---|
G|---9---9---9---9---9---9---9---9--|-6---6---6---6---6---6---6---6--|-7---7---7---7---7---7---7---|
D|----------------------------------|--------------------------------|-----------------------------|
A|----------------------------------|--------------------------------|-----------------------------|
E|----------------------------------|--------------------------------|-----------------------------|

[Riff 1]
   Am                                F                                      E
e|---------------------------------|---------------------------------------|-----------------------|
B|---------------------------------|-----------------6----6-----6-----6----|-----------------------|
G|--5-----5-----5------5---5--5--4-|---------------------------------------|-4-----4-----4------4--|
D|-----7-----7------7--------------|-7--5--7---5--7----7-----7-------------|----6-----6------6-----|
A|---------------------------------|---------------------------------------|-----------------------|
E|---------------------------------|---------------------------------------|-----------------------|

                        Am                          end Riff 1
e|---------------------|----------5---------------------------|
B|---------------------|-------5-----5-----6p5---5p6-----5----|
G|--4--5--4h5p4--------|----5-----------5------5------5-------|
D|----------------7--6-|-7------------------------------------|
A|---------------------|--------------------------------------|
E|---------------------|--------------------------------------|

[Verse 2]
  Am                                   F
  En__ce_rra____do_   en    el     tiempo______
e|-------------------------5----------|----------5--------------------8----------------------------|
B|-------------------5--------5-------|-----6------6-------8----6--------6-------------------------|
G|-5----5-----5---------5--------5----|---5---5-------5---------------------5----------------------|
D|---7-----7-----7------------------5-|-7---------------7-----7----7-----------7-------------------|
A|------------------------------------|------------------------------------------------------------|
E|------------------------------------|------------------------------------------------------------|

  E                                    Am
    Ha_    perdi____do____  el     valo_____r

e|--------4-----------5------4--------|--------------5--------------------5------------------------|
B|---5-------5-----5----5------5---5--|-----------5-----5--------------5-----5---------------------|
G|-4---4--------4---------4------4---4|--5----5------------5------5-------------5------------------|
D|------------------------------------|--7--7------------------7-----------------------------------|
A|------------------------------------|--7---------------------------------------------------------|
E|------------------------------------|-(5)--------------------------------------------------------|

  Am                                   F
  Para   escapa__r   de    su__    cel___da____

e|------------------------5-----------|---------5--------------------------------------------------|
B|------------------5--------5--------|----6------6----6---6-/-10--10-----10-----------------------|
G|-5----5-----5--------5--------5-----|-5-----5-----5------------------10----10--------------------|
D|---7-----7-----7-----------------5--|-7----------------------------------------------------------|
A|------------------------------------|------------------------------------------------------------|
E|------------------------------------|------------------------------------------------------------|

   E                                    Am
   El  héroe___   si______n         ilusió__n
                                                                     sl
e|-----------------7--7-8--7h8p7------|------------------------------------------------------------|
B|--9----9---9-------------------10-9-|-10---10----10---10--10-10--10-/----------------------------|
G|--9-----------9---------------------|----9----9-----9--9---9--9---9-/----------------------------|
D|--9--9---9--------------------------|------------------------------------------------------------|
A|------------------------------------|------------------------------------------------------------|
E|------------------------------------|------------------------------------------------------------|

[Chorus]
  Bm                                   Em
     E___n    sus    o_jo_____s    apaga____do__s
e|-(2)-----------2----2-------------2-|--7-------------7--7-------------7--------------------------|
B|--3--3----2h3-------3---3-----2h3---|--8--8-----7h8--8-----8-----7h8-----------------------------|
G|--4----4------------4------4--------|--9-----9-------9--------9----------------------------------|
D|--4-----------------4---------------|--9-------------9-------------------------------------------|
A|--2----------------(2)--------------|------------------------------------------------------------|
E|--2----------------(2)--------------|------------------------------------------------------------|

  Bm                                   Em
     Ha_y un   e_te______rno_     ca__stigo_____

e|-(2)-----------2----2-------------2-|--12--------14-------15------14-------12--------------------|
B|--3--3----2h3-------3---3-----2h3---|-----12--------12--------12-----12-------12-----------------|
G|--4----4------------4------4--------|---------12-------12---------------12-------12--------------|
D|--4-----------------4---------------|------------------------------------------------------------|
A|--2----------------(2)--------------|------------------------------------------------------------|
E|--2----------------(2)--------------|------------------------------------------------------------|

    A                                F#                               G
    El  héroe  de  le_ye__nda__  pertenece_ a__l  sueño  de__u_n  destino______

e|---9---9---9---9---9---9---9---9--|-6---6---6---6---6---6---6---6--|-7---7---7---7---7---7---7---|
B|--10--10--10--10--10--10--10--10--|-7---7---7---7---7---7---7---7--|-8---8---8---8---8---8---8---|
G|---9---9---9---9---9---9---9---9--|-6---6---6---6---6---6---6---6--|-7---7---7---7---7---7---7---|
D|----------------------------------|--------------------------------|-----------------------------|
A|----------------------------------|--------------------------------|-----------------------------|
E|----------------------------------|--------------------------------|-----------------------------|

[Solo]
   Am                                               F
e|------------------------------------------------|------------------------------------------------|
B|------------------------------------------------|------------------------6--5h6p5----------------|
G|-5---5--5--7--5h7p5--4-----5--5--7--5h7p5--4----|--2--2---2---2--2/5--5------------7---5--7/9----|
D|------------------------7---------------------5-|3-----------------------------------------------|
A|------------------------------------------------|------------------------------------------------|
E|------------------------------------------------|------------------------------------------------|

   E                                                 Am
e|-----------------------10--8--7--8--7h8p7--------|-----------------8--10--8h10p8------8----------|
B|--9--10--12--10--9-------------------------10--9-|10---10--10--10-----------------10-----10--8---|
G|--------------------9----------------------------|--------------9------------------------------9-|
D|-------------------------------------------------|--------------7--------------------------------|
A|-------------------------------------------------|-----------------------------------------------|
E|-------------------------------------------------|-----------------------------------------------|

  Am                                                          F

e|--------10-8h10p8------10--8h10p8------17---------15--------|15--13--12h13p12--------------------|
B|-8/10--------------10--------------10-----15---------13-----|------------------15--13------------|
G|----------------------------------------------14---------14-|---------------------------14-------|
D|------------------------------------------------------------|------------------------------------|
A|------------------------------------------------------------|------------------------------------|
E|------------------------------------------------------------|------------------------------------|

                               E                                                        
e|-13--12h13p12--------------|---------------------------------------------------------------------|
B|---------------15--13------|---------------------------------------------------------------------|
G|------------------------14-|-14--13h14p13---------------14--13h14p13-----13----------------------|
D|---------------------------|---------------14-------------------------14-----14------------------|
A|---------------------------|-------------------14---11---------------------------14---11-/sl-----|
E|---------------------------|---------------------------------------------------------------------|

   Am
e|--------------------------------------------|
B|--------------------------------------------|
G|--------------------------------------------|
D|--------10-----------------------10---------|
A|--10h12----12--12--12-----10h12------12-----|
E|--------------------------------------------|

[Chorus]
  Bm                                   Em
     E___n    sus    o_jo_____s    apaga____do__s
 
e|-(2)-----------2----2-------------2-|--7-------------7--7-------------7--------------------------|
B|--3--3----2h3-------3---3-----2h3---|--8--8-----7h8--8-----8-----7h8-----------------------------|
G|--4----4------------4------4--------|--9-----9-------9--------9----------------------------------|
D|--4-----------------4---------------|--9-------------9-------------------------------------------|
A|--2----------------(2)--------------|------------------------------------------------------------|
E|--2----------------(2)--------------|------------------------------------------------------------|

  Bm                                   Em
     Ha_y un   e_te______rno_     ca__stigo_____

e|-(2)-----------2----2-------------2-|--7-------------7--7-------------7--------------------------|
B|--3--3----2h3-------3---3-----2h3---|--8--8-----7h8--8-----8-----7h8-----------------------------|
G|--4----4------------4------4--------|--9-----9-------9--------9----------------------------------|
D|--4-----------------4---------------|--9-------------9-------------------------------------------|
A|--2----------------(2)--------------|------------------------------------------------------------|
E|--2----------------(2)--------------|------------------------------------------------------------|

    A                                F#                               G
    El  héroe  de  le_ye__nda__  pertenece_ a__l  sueño  de__u_n  destino______

e|---9---9---9---9---9---9---9---9--|-6---6---6---6---6---6---6---6--|-7---7---7---7---7---7---7---|
B|--10--10--10--10--10--10--10--10--|-7---7---7---7---7---7---7---7--|-8---8---8---8---8---8---8---|
G|---9---9---9---9---9---9---9---9--|-6---6---6---6---6---6---6---6--|-7---7---7---7---7---7---7---|
D|----------------------------------|--------------------------------|-----------------------------|
A|----------------------------------|--------------------------------|-----------------------------|
E|----------------------------------|--------------------------------|-----------------------------|

  Bm                                   Em
     E___n    sus    o_jo_____s    apaga____do__s
 
e|-(2)-----------2----2-------------2-|--7-------------7--7----------------------------------------|
B|--3--3----2h3-------3---3-----2h3---|--8--8-----7h8--8-----8-----7h8--7h8------------------------|
G|--4----4------------4------4--------|--9-----9-------9--------9----------------------------------|
D|--4-----------------4---------------|--9-------------9-------------------------------------------|
A|--2----------------(2)--------------|------------------------------------------------------------|
E|--2----------------(2)--------------|------------------------------------------------------------|

  Bm                                   Em
     Ha_y un   e_te______rno_     ca__stigo_____

e|-(2)-----------2----2-------------2-|--12--------14-------15------14-------12--------------------|
B|--3--3----2h3-------3---3-----2h3---|-----12--------12--------12-----12-------12-----------------|
G|--4----4------------4------4--------|---------12-------12---------------12-------12--------------|
D|--4-----------------4---------------|------------------------------------------------------------|
A|--2----------------(2)--------------|------------------------------------------------------------|
E|--2----------------(2)--------------|------------------------------------------------------------|

    A                                F#                               G
    El  héroe  de  le_ye__nda__  pertenece_ a__l  sueño  de__u_n  destino______

e|---9---9---9---9---9---9---9---9--|-6---6---6---6---6---6---6---6--|-7---7---7---7---7---7---7---|
B|--10--10--10--10--10--10--10--10--|-7---7---7---7---7---7---7---7--|-8---8---8---8---8---8---8---|
G|---9---9---9---9---9---9---9---9--|-6---6---6---6---6---6---6---6--|-7---7---7---7---7---7---7---|
D|----------------------------------|--------------------------------|-----------------------------|
A|----------------------------------|--------------------------------|-----------------------------|
E|----------------------------------|--------------------------------|-----------------------------|

   Am                                F                                      E
e|---------------------------------|---------------------------------------|-----------------------|
B|---------------------------------|-----------------6----6-----6-----6----|-----------------------|
G|--5-----5-----5------5---5--5--4-|---------------------------------------|-4-----4-----4------4--|
D|-----7-----7------7--------------|-7--5--7---5--7----7-----7-------------|----6-----6------6-----|
A|---------------------------------|---------------------------------------|-----------------------|
E|---------------------------------|---------------------------------------|-----------------------|

                        Am                          (end Riff 1)
e|---------------------|----------5---------------------------|
B|---------------------|-------5-----5-----6p5---5p6-----5----|
G|--4--5--4h5p4--------|----5-----------5------5------5-------|
D|----------------7--6-|-7------------------------------------|
A|---------------------|--------------------------------------|
E|---------------------|--------------------------------------|

   Am                                F                                      E
e|---------------------------------|---------------------------------------|-----------------------|
B|---------------------------------|-----------------6----6-----6-----6----|-----------------------|
G|--5-----5-----5------5---5--5--4-|---------------------------------------|-4-----4-----4------4--|
D|-----7-----7------7--------------|-7--5--7---5--7----7-----7-------------|----6-----6------6-----|
A|---------------------------------|---------------------------------------|-----------------------|
E|---------------------------------|---------------------------------------|-----------------------|

                        Am                          (end Riff 1)
e|-7-8--7h8p7----------|----------------------------------------------------------|
B|------------10--9----|-10---10---10--10-----8-----6-----------------------------|
G|---------------------|----9----9---------7-----5------4--5--4----2--------------|
D|---------------------|----------------------------------------------------------|
A|---------------------|----------------------------------------------------------|
E|---------------------|----------------------------------------------------------|


************************************

| p    Pull-off
| h    Hammer-on
| (n)  Ghost note
| /    Slide up

************************************

            
            
Suggest correction
Creating personal tab
Creating personal tab
You can edit any tab online and save it as your Personal.

You can edit, replace or remove any tab part or add personal notes – all changes will be seen only by you.

Personal tabs can be accessed anytime from any device, even offline.
Learn more »
comments
print report bad tab
guest
You may want to rate the tab now too:
select rating
Wanna post a correction for this tab? Suggest correction