Oops, an error
Loading. Please wait.

Saints Of Los Angeles intro tab

version 1
version 1

Intro

Whole song

Interactive

8,477 views 1 this week
4 commentsread comments
1 2 3 4 5
x 6
add to favorites
×
Save as Personal and add changes to this tab that will be seen only by you. Learn more ›
×
You can save this tab as Personal to edit and correct it or add notes. All changes will be seen only by you. Learn more »
launch autoscroll
font size
0
reset
how to read this tab
guitar tuner
backing track
0:00
0:00
edit
Autoscroll
slow
fast
+/-
esc
set tempo
stop
#----------------------------------PLEASE NOTE---------------------------------#
#This file is the author's own work and represents their interpretation of the #
#song. You may only use this file for private study, scholarship, or research. #
#------------------------------------------------------------------------------#
Tabbed by Jtrocks1356

I was getting pretty sick of not seeing any tabs. so here is the riff for the intro and
verses. im prolly going to tab out the rest of the song later.

for the pre chorus just play a E5 power chord and listen to the song to get the strum pattern.

for the chorus the chords are:  A  F  D  G  (repeat) and then go to F  G  and then go
to the intro riff then into the verse. for the second verse repeat what is tabbed out
once, and then just do the strum pattern on the A powerchord until it goes into the 
hope this helps u guys.

TAKE NOTE OF TUNING!!! D STANDARD


Gtr I (D G C F A D) - 'Mick Mars'

 4/4
  Gtr I
Intro Riff w/ wah
                                                 ~
                                                     3x
|-------------------------|--------------------------||----|
|-------------------------|-------------------------o||----|
|---2p0-2p0-x-2p0-2p0-0-2-|---2p0-2p0-x-2p0-2p0-0/3--||----|
|---2p0-2p0-x-2p0-2p0-0-2-|---2p0-2p0-x-2p0-2p0-0/3--||----|
|-0-----------------------|-0-----------------------o||----|
|-------------------------|--------------------------||----|


|-------------------------|-----------------------|----|
|-------------------------|-----------------------|----|
|---2p0-2p0-x-2p0-2p0-0-2-|---2p0-2p0-x-2---------|----|
|---2p0-2p0-x-2p0-2p0-0-2-|---2p0-2p0-x-2-5-5-5-5-|----|
|-0-----------------------|-0-------------5-5-5-5-|----|
|-------------------------|---------------3-3-3-3-|----|

Verse - also with wah
||----------------------------------|-------------------------|----|
||o---------------------------------|-------------------------|----|
||--2-------2---------2-----2-------|-----2-----2-------3-x-3-|----|
||--2-------2---------2-----2-------|-----2-----2-------3-x-3-|----|
||o-0-0-0-0-0-0-0-0-0-0-0-0-0-0-0-0-|-0-0-0-0-0-0-0-0-0-1-x-1-|----|
||----------------------------------|-------------------------|----|


|---------------------------------|--------------------------||----|
|---------------------------------|-------------------------o||----|
|-5-------5---------5-----5-------|---------------x-x-x-x-x--||----|
|-5-------5---------5-----5-------|-5-------5-----x-x-x-x-x--||----|
|-3-3-3-3-3-3-3-3-3-3-3-3-3-3-3-3-|-5-------5-----x-x-x-x-x-o||----|
|---------------------------------|-3-3-3-3-3-3-3------------||----|

Tablature Legend
----------------
 h   - hammer-on
 p   - pull-off
 b   - bend
 pb  - pre-bend
 r   - bend release (if no number after the r, then release immediately)
 /\  - slide into or out of (from/to "nowhere")
 s   - legato slide
 S   - shift slide
 - natural harmonic
[n]  - artificial harmonic
n(n) - tapped harmonic
 ~   - vibrato
 tr  - trill
 T   - tap
 TP  - trem. picking
 PM  - palm muting
\n/  - tremolo bar dip; n = amount to dip
 \n  - tremolo bar down
 n/  - tremolo bar up
/n\  - tremolo bar inverted dip
 =   - hold bend; also acts as connecting device for hammers/pulls
 <> - volume swell (louder/softer)
 x   - on rhythm slash represents muted slash
 o   - on rhythm slash represents single note slash

Misc Legend
-----------
 |  - bar
||  - double bar
||o - repeat start
o|| - repeat end
*|  - double bar (ending)
 :  - bar (freetime)
 $  - Segno
 &  - Coda
Tempo markers -  = BPM(8/16=s8/s16), where s8 = swing 8ths, s16 = swing 16ths

            
            
Suggest correction
Creating personal tab
Creating personal tab
You can edit any tab online and save it as your Personal.

You can edit, replace or remove any tab part or add personal notes – all changes will be seen only by you.

Personal tabs can be accessed anytime from any device, even offline.
Learn more »
comments
print report bad tab
4 comments total. Showing first comments.
0 reply
MattMac273 71 May 13, 2008 06:57 AM

Sorry man, it's soo wrong.
They rejected my tab though, for the whole song...
Fuckers.

0 reply
x3x.duddee.x3x 103 May 13, 2008 06:31 PM

so sorry but ummm no, the chorus is almost right but the verses are way off. Sorry!

0 reply
Zeldaik 41 Jun 28, 2008 11:19 AM

take a look at my tab and compare.

guest
You may want to rate the tab now too:
select rating
Wanna post a correction for this tab? Suggest correction