Oops, an error
Loading. Please wait.

Saints Of Los Angeles solo tab

version 1
version 1

Solo

Whole song

Interactive

10,990 views 1 this week
8 commentsread comments
1 2 3 4 5
x 8
add to favorites
×
Save as Personal and add changes to this tab that will be seen only by you. Learn more ›
×
You can save this tab as Personal to edit and correct it or add notes. All changes will be seen only by you. Learn more »
launch autoscroll
font size
0
reset
how to read this tab
guitar tuner
backing track
0:00
0:00
edit
Autoscroll
slow
fast
+/-
esc
set tempo
stop
This is my first tab...please comment or rate.  If i get a good response I'll post the
of pain solos I've tabbed, Eye on the money, We need a lover, etc...plus some Too fast
love solos that seem to be missing from most of the other tabs..Take me to the top, 
eyes, public enemy #1, and so on..thanks and enjoy!!


d-|----------------------|------------------------------------------------|
a-|----------------------|--------13----15----13----------13---15---13----|
f-|----12b14--12b14~~----|--12/14----14----14----------14---14---14-------|
c-|----------------------|------------------------------------------------|
g-|----------------------|------------------------------------------------|
d-|----------------------|------------------------------------------------|

d-|----------------------|------------------------------------------------|
a-|----------------------|--------13----15----13------13p12-10-12p10-8----|
f-|--12b14--12--12b14~~--|--12/14----14----14-----------------------------|
c-|----------------------|------------------------------------------------|
g-|----------------------|------------------------------------------------|
d-|----------------------|------------------------------------------------|

d-|----------------------|---------8--------7--------8--------10----------|
a-|----8b10~~--8b10~~----|-----10--11b13~~--10b12~~--11b13~~--13b15~~-----|
f-|----------------------|------------------------------------------------|
c-|----------------------|------------------------------------------------|
g-|----------------------|------------------------------------------------|
d-|----------------------|------------------------------------------------|

      /-----6-----\    /-----6-----\    /-----6-----\    /-----6-----\
         p      p         p      p         p      p         p      p
d-|---(3-1-0)----------(3-1-0)----------(3-1-0)----------(3-1-0)----------|
a-|----------(3-1-0)----------(3-1-0)----------(3-1-0)----------(3-1-0)---|
f-|-----------------------------------------------------------------------|
c-|-----------------------------------------------------------------------|
g-|-----------------------------------------------------------------------|
d-|-----------------------------------------------------------------------|

d-|--------------------------|-------------------|------------------------|
a-|-/5-0-0-0--/5-0-0-0--/5~~-|-0-8-6-5-----------|------------------------|
f-|--------------------------|---------7-5-4-2-0-|------------------------|
c-|--------------------------|-------------------|-3-2-0------------------|
g-|--------------------------|-------------------|-------3-2-0------------|
d-|--------------------------|-------------------|-------------3-1-0\dive-|

d-|----------------------------------|---------------------|-12----12-----|
a-|----------------------------------|---------------------|-15b17-15b17~~|
f-|--------------------------555-444-|-777-555--7/999------|--------------|
c-|----------555-333-777-555---------|---------------------|--------------|
g-|--777-555-------------------------|----------------7~~--|--------------|
d-|----------------------------------|---------------------|--------------|

d-|-12------13------14------15-------|---12------13------14------15-------|
a-|-15b17~~-16b18~~-17b19~~-18b20~~--|---15b17~~-16b18~~-17b19~~-18b20~~--|
f-|----------------------------------|------------------------------------|
c-|----------------------------------|------------------------------------|
g-|----------------------------------|------------------------------------|
d-|----------------------------------|------------------------------------|

d-|----17-------|----20p17--20p17---17--20p17--20p17---17--20p17-20p17----|
a-|----20b22~~--|-----------------20-----------------20-------------------|
f-|-------------|---------------------------------------------------------|
c-|-------------|---------------------------------------------------------|
g-|-------------|---------------------------------------------------------|
d-|-------------|---------------------------------------------------------|

  *Mick is just rapidly sliding up the neck and releasing to the open D string.  The
and 17th frets were the best notes i could discern, but i suppose just randomly sliding and
will produce the same effect*

                                                               pick slide

d-|--/12-0-0-0--/12-0-0-0--/12-0-0--/12-0-0--/12-|-/17-0-0--/17-0-0-x\\---|
a-|----------------------------------------------|-------------------x\\--|
f-|----------------------------------------------|---------------------x\-|
c-|----------------------------------------------|------------------------|
g-|----------------------------------------------|------------------------|
d-|----------------------------------------------|------------------------|

d-|--------------------------------------------|--------------------------|
a-|--------13----15----13---13p12-10-12p10-----|--------------------------|
f-|--12/14----14----14---------------------12--|----------REPEAT----------|
c-|--------------------------------------------|--------------------------|
g-|--------------------------------------------|--------------------------|
d-|--------------------------------------------|--------------------------|

d-|------12------12-------12-------12-------12-------12-------12------12--|
a-|-15b17---15b17----15b17----15b17----15b17----15b17----15b17----15b17---|
f-|-----------------------------------------------------------------------|
c-|-----------------------------------------------------------------------|
g-|-----------------------------------------------------------------------|
d-|-----------------------------------------------------------------------|

d-|--17-----17-17-17-17-17-17-17-17-17-17-17-17--|------------------------|
a-|--20b22---------------HOLD-BEND---------------|--------13----15----13--|
f-|----------------------------------------------|--12/14----14----14-----|
c-|----------------------------------------------|------------------------|
g-|----------------------------------------------|------------------------|
d-|----------------------------------------------|------------------------|

d-|----------------------|-----------------------|------------------------|
a-|--/15-13-12--13-------|---------13p12--15-13--|---/15-13-12--13--------|
f-|----------------14~~--|--12/14----------------|-----------------14~~---|
c-|----------------------|-----------------------|------------------------|
g-|----------------------|-----------------------|------------------------|
d-|----------------------|-----------------------|------------------------|

                                                                   A.H
d-|--17---------|------17-------------------|-----------------------------|
a-|--15b17--HOLD-BEND--17r15--SLOW-RELEASE--|--------------13-13--15b17---|
f-|-------------|---------------------------|--12-12-14-14----------------|
c-|-------------|---------------------------|-----------------------------|
g-|-------------|---------------------------|-----------------------------|
d-|-------------|---------------------------|-----------------------------|


     Thats all of it..it's as close as i could get, if anyone has any
     corrections let me know.


LEGEND
A.H = artificial harmonic
b = bend
r = release bend
h = hammer-on
p = pull-off
~ = vibrato
x = muted string
/ = slide up
\ = slide down

            
            
Suggest correction
Creating personal tab
Creating personal tab
You can edit any tab online and save it as your Personal.

You can edit, replace or remove any tab part or add personal notes – all changes will be seen only by you.

Personal tabs can be accessed anytime from any device, even offline.
Learn more »
comments
print report bad tab
8 comments total. Showing first comments.
0 reply
Jtrocks1356 59 May 20, 2008 04:00 PM

pretty darn good. only corection is for the first two bends of the beginning of the solo, its
d-|----------------------|
a-|----10-----10---------|
f-|----12b14--12b14~~----|
c-|----------------------|
g-|----------------------|
d-|----------------------|

but other than that its like close to perfect

0 reply
rendina 10 May 31, 2008 07:26 AM

sweet kickass but the tuning is standerad(whole step down not c.
but thats not really important the notes on the side are write.
hey could you tab the rest of this song please

0 reply
true_crue 103 May 31, 2008 09:52 AM

yea i tabbed this in D tuning but when i submitted it along with my other Crue tabs, the site changed it to show it in C..not sure why...anyways i'll work on the rest of the song, theres a lot of different parts that are hard to distinguish but when im done they'll all be there thanks

guest
You may want to rate the tab now too:
select rating
Wanna post a correction for this tab? Suggest correction