Oops, an error
Loading. Please wait.

Se Que Todo Ha Acabado Ya Tab

version 1
version 1

Whole song

Interactive

2,428 views 3 this week
no commentswrite comment
1 2 3 4 5
please rate
add to favorites
launch autoscroll
font size
0
reset
how to read this tab
guitar tuner
Tab Pro tools
  • play this tab
  • loop segment
  • change instrument
  • show fretboard
  • metronome
×
Best way to learn
"Se Que Todo Ha Acabado Ya"
Autoscroll
slow
fast
+/-
esc
set tempo
stop
Contributor
Difficulty
intermediate
Título original: Sé que todo ha acabado ya
Artista: Pedro Suárez Vertiz
Álbum: Póntelo en la lengua
Año: 1996

Offical website of the artist:
 http://www.pedrosuarez-vertiz.com/


Tabbed by: Diego Solís Pezzia


INTRO


e |--------------------------------------------------------------5--->
B |-----------------------------------------3------------------------>
G |--------------------2--------------------------------------------->
D |---------2----5--4-------------2-----5--4-------------2-----5-4--->
A |-0--2--4---4----------0--2--4---4----------0--2--4-----4---------->
E |------------------------------------------------------------------>

e | ---------------------------| 
B | ---------------------------| 
G | ---------------------------| 
D | --------2-4-2--------------| 
A | -0--2--4-------0-----------| 
E | -----------------0--2--4---| 


      A        E        F#m
      Se que todo acabado ya
      D        A             E
      como duele el corazon
      A         E        F#m
      ya no queda oportunidad
      D          A            E
      un gran libro se cerro
      A        E         F#m
      nadie ve lo que va pasar
      D         A            E
      somos ciegos al nacer
      A          E          F#m
      y ahora vez nada estuvo mal
      D         A              E
      nos culpamos sin querer.

      

      CORO


      B                         G#m
      Si estoy bien o si estoy mal

                              C#m                 F#
      al universo le da igual todo sigue alrededor

      B                            
      el amor no es divinidad

      
      G#m                     C#m                 F#
      es un ciclo natural que destroza el corazon.



      A        E        F#m
      Esta bien lo voy aceptar
      D         A            E
      Dios no inventes el final, 
      (es lo unico que te pido).


    SOLO

e|------5-5---5------------------------------------12----------------|
B|--5-7-----7-----12-12--10b12-10-8-10----------------14-12-14-14----|
G|-------------------------------------------------------------------|
D|-------------------------------------------------------------------|
A|-------------------------------------------------------------------|
E|-------------------------------------------------------------------|


e|----------------------------19-17--17----19--17--17-----17-19-17---|
B|--14-12-10-12--10-9-10-12-------------19------------19-------------|
G|-------------------------------------------------------------------|
D|-------------------------------------------------------------------|
A|-------------------------------------------------------------------|
E|-------------------------------------------------------------------|


e|-----16-17-19--21-21---19-17--21-21--19-17-19-17-16-17-16-17-12--7-|
B|-19----------------------------------------------------------------|
G|-------------------------------------------------------------------|
D|-------------------------------------------------------------------|
A|-------------------------------------------------------------------|
E|-------------------------------------------------------------------|

      CORO


      B                         G#m
      Si estoy bien o si estoy mal

                              C#m                 F#
      al universo le da igual todo sigue alrededor

      B                            
      el amor no es divinidad

      
      G#m                     C#m                 F#
      es un ciclo natural que destroza el corazon.

      A         E              F#m
      Por favor no paseemos mas
      D         A              E
      es muy tarde y ya me voy
      A        E               F#m
      por favor ya no hablemos mas
      D         A              E
      se desluce una ilusion.

    
      A    E    F#m
      D    A    E   
      A    E    F#m
      D    A    E


      Outro

e |--------------------------------------------------------------5--->
B |-----------------------------------------3------------------------>
G |--------------------2--------------------------------------------->
D |---------2----5--4-------------2-----5--4-------------2-----5-4--->
A |-0--2--4---4----------0--2--4---4----------0--2--4-----4---------->
E |------------------------------------------------------------------>


e|-----0-------|
B|-----2-------|
G|-----2-------|
D|-----2-------|
A|-----0-------|
E|-----x-------|

The end

*Chords 

G#m
e|----4--------|
B|----4--------|
G|----4--------|
D|----6--------|
A|----6--------|
E|----4--------|

C#m
e|----4--------|
B|----5--------|
G|----6--------|
D|----6--------|
A|----4--------|
E|----x--------|

F#m
e|----2--------|
B|----2--------|
G|----2--------|
D|----4--------|
A|----4--------|
E|----2--------|

F#
e|----2--------|
B|----2--------|
G|----3--------|
D|----4--------|
A|----4--------|
E|----2--------|

B
e|----2--------|
B|----4--------|
G|----4--------|
D|----4--------|
A|----2--------|
E|----x--------|

D
e|----2--------|
B|----3--------|
G|----2--------|
D|----0--------|
A|----x--------|
E|----x--------|

E
e|----0--------|
B|----0--------|
G|----1--------|
D|----2--------|
A|----2--------|
E|----0--------|

A
e|----0--------|
B|----2--------|
G|----2--------|
D|----2--------|
A|----0--------|
E|----x--------|
  

 
comments
We did not receive enough feedback on this tab! Please rate:
print report bad tab
1 2 3 4 5
I want to post or [tab]
guest
You may want to rate the tab now too:
select rating
Please do not post tabs as comments. Select "correction" instead!