Oops, an error
Loading. Please wait.

Останусь Bass Tab

1,054 views 1 this week
no commentswrite comment
1 2 3 4 5
please rate
add to favorites
launch autoscroll
font size
0
reset
guitar tuner
Tab Pro tools
  • play this tab
  • loop segment
  • change instrument
  • show fretboard
  • metronome
×
Best way to learn
"останусь"
Autoscroll
slow
fast
+/-
esc
set tempo
stop
Contributor
Tuning: standart 

Thats is my first tab so i now thats is bad but i trying to do some better . 


intro \ verse  X 4 

G|-------------------17----------------------------------------------------------|     
D|-------17-------17----17------------17-----------13------------10--------------|
A|-12-15----15-17------------------17-----------13------------10-----------------|  
E|-------------------------15----15------------11-------10h11p10-----------------|

   chorus in 0:55
G|-------------------------------------------------------------------------------|
D|-10---------8-15--13-12--10---------8------------10---------8--15--13-12-10-12-|
A|----10-8-10-----------------10-8-10----10--8-10-----10-8-10--------------------|
E|-------------------------------------------------------------------------------|

  verse 2 in  1:16  X 4 
G|-------------------------------------------------------------------------------|
D|-------------------------------------------------------------------------------|
A|---------3---6---5h6p5--3-5--------5--5----------------------------------------|
E|-3---5-6-----------------------3-5--7------5--3--------------------------------|
   
   chorus 2 in 2:09 
G|-------------------------------------------------------------------------------|
D|-------------------------------------------------------------------------------|
A|-3-------1--8--6-5-3-------1--------3-------1--8--6-5-3-5----------------------|
E|---3-1-3-------------3-1-3---3--1-3---3-1-3------------------------------------|
   
  bridge in 2:32
G|-------------------------------8-8-------------------5-5------------------------------------|
D|---------5-5-3h5-----------6h8-----8-6-----------3h5----5-3---------------7-7---------------|
A|-----3h5---------5-3-5-6-6-------------8-6-5-3-3------------5-3-------5h7---------5-7-4-----|
E|-3-3------------------------------------------------------------3-5-5---------5-7-------7-5-|
  slide to horus start in 2:58 
G|---------------------------------------------------------------------------|
D|---------------------------------------------------------------------------|
A|--12s3---------------------------------------------------------------------|
E|---------------------------------------------------------------------------|



| /  slide up
| \  slide down
| h  hammer-on
| p  pull-off
| ~  vibrato
| +  harmonic
| x  Mute note
===============================================================================
comments
We did not receive enough feedback on this tab! Please rate:
print report bad tab
1 2 3 4 5
I want to post or [tab]
guest
You may want to rate the tab now too:
select rating
Please do not post tabs as comments. Select "correction" instead!