Oops, an error
Loading. Please wait.

Believe tab

version 1
version 1

Whole song

4,670 views 1 this week
no commentswrite comment
1 2 3 4 5
2 more votes to show rating
add to favorites
×
Save as Personal and add changes to this tab that will be seen only by you. Learn more ›
×
You can save this tab as Personal to edit and correct it or add notes. All changes will be seen only by you. Learn more »
launch autoscroll
font size
0
reset
how to read this tab
guitar tuner
edit
Autoscroll
slow
fast
+/-
esc
set tempo
stop
well, here are the tabs of the ESC winning song, it's easy for play

in the performance and in the spanish version the song is with a capo on 1st fret, in 
studio version is with rhe capo on 3rd

chords:

C

e|---|---|---|---|  |-0-| E
B|-1-|---|---|---|  |-1-| C
G|---|---|---|---|  |-0-| G
D|---|-2-|---|---|  |-2-| E
A|---|---|-3-|---|  |-3-| C
E|---|---|---|---|X |-x-|


Am

e|---|---|---|---|  |-0-| E
B|-1-|---|---|---|  |-1-| C
G|---|-3-|---|---|  |-2-| A
D|---|-2-|---|---|  |-2-| E
A|---|---|---|---|  |-0-| A
E|---|---|---|---|X |-x-|


E7

e|---|---|---|---|  |-0---| E
B|---|---|-3-|---|  |-3---| D
G|---|---|---|---|  |-0---| G
D|---|-2-|---|---|  |-2---| E
A|---|-1-|---|---|  |-2---| B
E|---|---|---|---|  |-0---| E


G

e|---|---|-3-|---|  |-3---| G
B|---|---|---|---|  |-0---| B
G|---|---|---|---|  |-0---| G
D|---|---|---|---|  |-0---| D
A|---|-1-|---|---|  |-2---| B
E|---|---|-2-|---|  |-3---| G


Gadd6

e|---|---|-0-|---|  |-0---| E
B|---|---|---|---|  |-0---| B
G|---|---|---|---|  |-0---| G
D|---|---|---|---|  |-0---| D
A|---|-1-|---|---|  |-2---| B
E|---|---|-2-|---|  |-3---| E


   C       Am         E7      G          C       Am         E7      Gadd6
e|------------------|------------------|------------------|----------------0-|
B|----1-------1-----|----3-------0-----|----1-------1-----|----3-------0--0--|
G|---0-------2------|---0-------0------|---0-------2------|---0-------0--0---|
D|--2-------2-------|--2-------0-------|--2-------2-------|--2-------0--0----|
A|-3-------0--------|-2----------------|-3-------0--------|-2----------------|
E|------------------|---------3--------|------------------|---------3--------|

repeat this all whole song

lyrics:


Even when the thunder and storm begins           \
I’ll be standing strong like a tree in the wind  | 1st
Nothing's gonna move this mountain               | time
Or change my direction                           /
I’m falling off that sky and I’m all alone       \
The courage that’s inside is gonna brake my fall | 2nd time
Nothing’s gonna dim my light within              /
But if I keep going on                           \
It will never be impossible, not today           | 3rd time
Cause I’ve got something to believe in           /
As long as I’m breathing                         \
There is not a limit to what I can dream         | 4th time
Cause I’ve got something to believe in           /
Mission to keep climbing                         \
Nothing else can stop me if I just believe       | 5th time
And I believe in me                              /
Even when the world tries to pull me down        \
Tell me that I can, try to turn me around        | 6th time
I wont let them put my fire out, without no!     /
But if I keep going on                           \
It will never be impossible, not today           | 7rd time
Cause I’ve got something to believe in           /
As long as I’m breathing                         \
There is not a limit to what I can dream         | 8th time
Cause I’ve got something to believe in           /
Mission to keep climbing                         \
Nothing else can stop me if I just believe       | 9th time
And I believe:                                   /
I can do it all                                  \ 10th
Open every door                                  / time
Turn unthinkable to reality                      \ 11th
You’ll see- I can do it all and more!            / time
Believing                                        \
As long as I’m breathing                         | 12th time
There is not a limit to what I can dream         /
Believing                                        \
Mission to keep climbing                         | 13th time
Nothing else can stop me if just believe         /

|---------^0--|
|----1----|1--|
|---0-----|0--|
|--2------|2--|
|-3-------|3--|
|-------------|
And I believe in me.

the lyrics in spalish

Aunque la tormenta esté azotándome
seguiré de pie como un roble en el viento
nada en esta vida logrará
torcer mi camino
El suelo se derrumba
y me siento solo
yo tengo que intentar detener la caída
y cuidar la luz dentro de mí
Ya no pienso descansar
porque hay un guerrero en mi interior
es mi corazón
Creer en algo es el secreto
ir detrás de un sueño
no perder la magia de amar por amar.
Creer en algo es el secreto
y saber que el dueño
de mis fantasías y mi realidad
Soy yo y nadie más
Cuando se presente ante mí la tristeza
le diré que aquí ya no tiene un lugar
no permitiré que me lastimen
voy a luchar
Ya no pienso descansar
porque hay un guerrero en mi interior
es mi corazón
Creer en algo es el secreto
ir detrás de un sueño
no perder la magia de amar por amar
Creer en algo es el secreto
y saber que el dueño
de mis fantasías y mi realidad
soy solo yo
Ya puedo volar
sin ningún temor
ya me liberé de mi cruel prisión
ya ves, como siempre sale el Sol
Secreto
ir detrás de un sueño
no perder la magia de amar por amar
Creer en algo es el secreto
y saber que el dueño
de mis fantasías y mi realidad
soy yo y nadie más.

lovessssssssssssssssssssssss

al-ver!!!

            
            
Suggest correction
Creating personal tab
Creating personal tab
You can edit any tab online and save it as your Personal.

You can edit, replace or remove any tab part or add personal notes – all changes will be seen only by you.

Personal tabs can be accessed anytime from any device, even offline.
Learn more »
Give kudos to tab author, rate the tab!
1 2 3 4 5
comments
print report bad tab
guest
Wanna post a correction for this tab? Suggest correction