Oops, an error
Loading. Please wait.

Gobbledigook tab

version 2
version 2

Whole song

Interactive

52,218 views 27 this week
1 commentread comment
1 2 3 4 5
x 31
add to favorites
×
Save as Personal and add changes to this tab that will be seen only by you. Learn more ›
×
You can save this tab as Personal to edit and correct it or add notes. All changes will be seen only by you. Learn more »
launch autoscroll
font size
0
reset
how to read this tab
guitar tuner
edit
Autoscroll
slow
fast
+/-
esc
set tempo
stop
Author
Difficulty
-------------------------------------------------------------------------------
                             GOBBLEDIGOOK - Sigur Rós
-------------------------------------------------------------------------------
Tabbed by: Alex Worthy
Email: azimuth457@gmail.com

Tuning: Standard EADGBe
This is exactly the guitar for the first song on the new Sigur album.
well, exactly the guitar that Jónsi plays..I think some backup is involved during the verse.

The verse might sound wrong,
but Jónsi meets the important notes in the chords with the notes he's singing,
not with the tune of the song. (which really got me confused at first).

Either way, this song can be tricky at first with the timing, so I will show you the parts
and after they end on the tab, that's where it would repeat.

Intro:
e|---------------------------|
B|---------------------------|
G|--4--6--7--2--4--6--2------|
D|--0--0--0--0--0--0--0------|
A|--x--x--x--x--x--x--x------|
E|--3--5--7--2--3--5--2------|

Verse: right along with Jónsi's singing.
e|-----------------------------------|
B|-----------------------------------|
G|--11--9--11--14--11--9--11--7--9---|
D|--0---0--0---0---0---0--0---0--0---|
A|--x---x--x---x---x---x--x---x--x---|
E|--10--9--10--14--10--9--10--7--9---|

Prechorus: real short, just the two chords, but is played
           between some of the verse repeats.
e|--------------|
B|--------------|
G|---6~---7~----|
D|---0~---0~----|
A|---x~---x~----|
E|---5~---7~----|

Chorus: I'll try to show the changes with the lyrics..this could confuse you.
e|-------------------------------------------|
B|-------------------------------------------|
G|--4---------------------2--------6---------|
D|--0---------------------0--------0---------|
A|--x---------------------x--------x---------|
E|--3---------------------2--------5---------|
      Lalalalalalalala    Vindur í hárinu 
 (the chorus chords are strummed over and over, i just didn't show that)


Well, you can probably figure out the rest..sounds like it ends on D, 
I just play xx07xx, sounds good to me.

| /  slide up
| \  slide down
| h  hammer-on
| p  pull-off
| ~  vibrato
| +  harmonic
| x  Mute note
===============================================================================

            
            
Suggest correction
Creating personal tab
Creating personal tab
You can edit any tab online and save it as your Personal.

You can edit, replace or remove any tab part or add personal notes – all changes will be seen only by you.

Personal tabs can be accessed anytime from any device, even offline.
Learn more »
comments
print report bad tab
1 comment total.
0 reply
kariboudin 10 Dec 25, 2016 04:19 PM

hej !
Thank you it's super great, i just wanted to ask isn't there a different riff at the very beggining of the song that goes like this :
e|---------------------------|
B|---------------------------|
G|--4--6--7--2--4--4--2--2---|
D|--0--0--0--0--0--0--0--0---|
A|--x--x--x--x--x--x--x--x---|
E|--3--5--7--2--3--3--2--2---|

guest
You may want to rate the tab now too:
select rating
Wanna post a correction for this tab? Suggest correction