Oops, an error
Loading. Please wait.

Deine Freundin Tab

version 1
version 1

Whole song

Interactive

7,492 views 1 this week
1 commentread comment
1 2 3 4 5
please rate
add to favorites
launch autoscroll
font size
0
reset
how to read this tab
guitar tuner
Tab Pro tools
  • play this tab
  • loop segment
  • change instrument
  • show fretboard
  • metronome
×
Best way to learn
"Deine Freundin"
Autoscroll
slow
fast
+/-
esc
set tempo
stop
Contributor
-------------------------------------------------------------------------------
                            Deine Freundin Tab by Felle
-------------------------------------------------------------------------------
Artist: Die Ärzte
Song: Deine Freundin(wäre mir zu anstrengend!)
Album : Jazz ist Anders
Tuning:EADGBE

 !DEUTSCH!: Das ist wohl eines der Stücke die man als "Funk Musik" bezeichnen
 würde,die einzelnen "Muted Notes" müsst ihr selber raushören!

Intro:

e|-888-9-1010-10-10-8s-|
B|-777-8-9-9--9--9--7s-|
G|-555-6-7-7--7--7--5s-|
D|---------------------|
A|---------------------|
E|---------------------|

1st Verse:                                    played 1x
                                        I----------------I

e|---5--33-5----33-5----5--33-5----------------------------------|
B|---2--22-2----22-2----2--22-2---------7br----------------------|
G|---2--22-2----22-2----2--22-2---------7br-7-5-7-5--------------|
D|--------------------------------------------------7-5-7--------|
A|-0--------------------------------3s---------------------------|
E|---------------------------------------------------------------|

e|-5--33-5----33-5----5--33-5----33-5------------------7-7-10-7-----7|
B|-2--22-2----22-2----2--22-2----22-2------------------7-7-7--7-10b--|
G|-2--22-2----22-2----2--22-2----22-2--7-7-777---------7-7-7--7------|
D|-------------------------------------7-7-777-7-8-9-9---------------|
A|-----------------3b0-----------------5-5-555-7-8-9-9---------------|
E|---------------------------------------------5-6-7-7---------------|

e|--5--33-5---5--33-5------------------88888---|
B|--2--22-2---2--22-2------------------77777---|
G|--2--22-2---2--22-2-7-7-77-7-7-5-555-77777---|
D|--------------------7-7-77-7-7-5-555---------|
A|00-------3b0--------5-5-55-5-5-3-333---------|
E|------------------------------------------3b-|

Chorus:

2nd Guitar spielt Verse

e|-5-55---5-5---3-3---5-5--5s3-|----------0-0-0-0--888-9-1010-10-10-8s--|
B|-5-55---5-5---3-3---7-7--7s5-|----------0-0-0-0--777-8-9-9--9--9--7s--|
G|-5-55---5-5---4-4---7-7--7s5-|----------1-1-1-1--555-6-7-7--7--7--5s--|
D|-7-77---7-7---5-5---7-7--7s5-|-x-3,dann-2-2-2-2-----------------------|
A|-7-77---7-7---5-5---5-5--5s3-|----------2-2-2-2-----------------------|
E|-5-55---5-5---3-3------------|----------0-0-0-0-----------------------|

2nd Verse:                    Dieser Part ist fast unmöglich zu spielen,
                              I-------------------------------------------|I
e|-5--33-5----33-5---3--55-3----------------------------------------------|
B|-2--22-2----22-2---2--22-2--5-3-3---------------------------------------|
G|-2--22-2----22-2---2--22-2-----5-5-2-5-2-2------------------------------|
D|----------------------------------------5-5-2-5-2-2---------------------|
A|----------------3b0------------------------------5-5-3-5-3-3------------|
E|----------------------------------------------------------5-5-3-5-------|

e|-5--33-5----33-5----5--33-5----33-5------------------7-7-10-7-----7|
B|-2--22-2----22-2----2--22-2----22-2------------------7-7-7--7-10b--|
G|-2--22-2----22-2----2--22-2----22-2--7-7-777---------7-7-7--7------|
D|-------------------------------------7-7-777-7-8-9-9---------------|
A|-----------------3b0-----------------5-5-555-7-8-9-9---------------|
E|---------------------------------------------5-6-7-7---------------|

e|--5--33-5---5--33-5------------------88888---|
B|--2--22-2---2--22-2------------------77777---|
G|--2--22-2---2--22-2-7-7-77-7-7-5-555-77777---|
D|--------------------7-7-77-7-7-5-555---------|
A|00-------3b0--------5-5-55-5-5-3-333---------|
E|------------------------------------------3b-|

Chorus:

2nd Guitar spielt Verse

e|-5-55---5-5---3-3---5-5--5s3-|----------0-0-0-0--888-9-1010-10-10-8s--|
B|-5-55---5-5---3-3---7-7--7s5-|----------0-0-0-0--777-8-9-9--9--9--7s--|
G|-5-55---5-5---4-4---7-7--7s5-|----------1-1-1-1--555-6-7-7--7--7--5s--|
D|-7-77---7-7---5-5---7-7--7s5-|-x-3,dann-2-2-2-2-----------------------|
A|-7-77---7-7---5-5---5-5--5s3-|----------2-2-2-2-----------------------|
E|-5-55---5-5---3-3------------|----------0-0-0-0-----------------------|

Solo:

e|------------------------------------------------------------------------|
B|15v-----13--------15--------------------------------------------------13|
G|---12h14--14-12h14---14---12h14p12------------------------------12h14---|
D|----------------------------------14-13-12-----------------12h14--------|
A|------------------------------------------15-12-10s12s12-15-------------|
E|------------------------------------------------------------------------|

e|------------------------------------------------------------------------|
B|------------------------------------------------------------------------|
G|12h14-12h14-12h14-12v-s-s14-12------------------------12----------------|
D|------------------------------14-13-12s10----------10---12s14-----------|
A|------------------------------------------12-10h12----------------------|
E|------------------------------------------------------------------------|

e|------15------15-----15------15------15-17b-17b-17b-17br----------------|
B|-15h17---15h17--15h17---15h17---15h17-----------------------------------|
G|------------------------------------------------------------------------|
D|------------------------------------------------------------------------|
A|------------------------------------------------------------------------|
E|------------------------------------------------------------------------|

Outro:

e|--------------------|---------------------------------------------------|
B|--------------------|----------9--9--12--9-8-7--------------------------|
G|--------------------|----------9--9--12--9-8-7---7p5--7p5--7p5--7p5-----|
D|-7--7-7--5-7-10-7-5-|-x2-dann--9--9--12--9-8-7------7----7----7----7----|
A|-7--7-7--5-7-10-7-5-|----------7--7--10--7-6-5--------------------------|
E|-5--5-5--3-5-8--5-3-|---------------------------------------------------|


Song endet auf Am(Barre)

| /  slide up
| \  slide down
| h  hammer-on
| p  pull-off
| ~  vibrato
| +  harmonic
| x  Mute note
| b  Bend
| r  Re-Bend
===============================================================================
comments
We did not receive enough feedback on this tab! Please rate:
print report bad tab
1 2 3 4 5
1 comment total.
+1 reply
Tarraco wrote on November 30 2008, 05:04 am

wow super tab, seit langem die erste die ich zu diesem Lied gefunden hab, aber leider extrem schwierig zu spielen :/

I want to post or [tab]
guest
You may want to rate the tab now too:
select rating
Please do not post tabs as comments. Select "correction" instead!