Oops, an error
Loading. Please wait.

We Are The Road Crew bass

version 1
version 1

Whole song

Interactive

11,693 views 15 this week
1 commentread comment
1 2 3 4 5
x 7
add to favorites
×
Save as Personal and add changes to this tab that will be seen only by you. Learn more ›
×
You can save this tab as Personal to edit and correct it or add notes. All changes will be seen only by you. Learn more »
launch autoscroll
font size
0
reset
guitar tuner
backing track
0:00
0:00
edit
Autoscroll
slow
fast
+/-
esc
set tempo
stop
Artist:Motorhead.
Song:(We Are)The Road Crew.
Album:Ace Of Spades.
Tunning:Half Step.
Tab:Lopez017.


Gb|---------|    |-----------|
Db|-6-4-----|    |-6-4-------| GUITAR FILL
Ab|-----6---| x2 |-----6---4-| 
Eb|-------7-|    |-------7---|

VERSE 1
Gb|---------------------------------------------------|
Db|---------------------------------------------------|
Ab|---------------------------------------------------| x2
Eb|-4-444-4-444-4-444-4-444-4-444-4-444-222222-000000-|

Gb|---------------------------------------------------|
Db|---------------------------------------------------|
Ab|---------------------------------------------------|
Eb|-4-444-4-444-4-444-4-444-4-444-4-444-000000-222222-|

CHORUS
Gb|-----------|
Db|-6-4-------|
Ab|-----6---4-|  GUITAR FILL
Eb|-------7---|

VERSE 2
Gb|---------------------------------------------------|
Db|---------------------------------------------------|
Ab|---------------------------------------------------| x2
Eb|-4-444-4-444-4-444-4-444-4-444-4-444-222222-000000-|

Gb|---------------------------------------------------|
Db|---------------------------------------------------|
Ab|---------------------------------------------------|
Eb|-4-444-4-444-4-444-4-444-4-444-4-444-000000-222222-|

CHORUS
Gb|-----------|
Db|-6-4-------|
Ab|-----6---4-|  GUITAR FILL
Eb|-------7---|

Gb|---------------------------------------------------|
Db|---------------------------------------------------|
Ab|---------------------------------------------------| x2
Eb|-4-444-4-444-4-444-4-444-4-444-4-444-222222-000000-|

Gb|---------------------------------------------------|
Db|---------------------------------------------------|
Ab|---------------------------------------------------|
Eb|-4-444-4-444-4-444-4-444-4-444-4-444-000000-222222-|

Gb|-----------|
Db|-6-4-------|
Ab|-----6---4-|  GUITAR FILL
Eb|-------7---|

Gb|---------------------------------------------------|
Db|---------------------------------------------------|
Ab|---------------------------------------------------| x2
Eb|-4-444-4-444-4-444-4-444-4-444-4-444-222222-000000-|

Gb|---------------------------------------------------|
Db|---------------------------------------------------|
Ab|---------------------------------------------------|
Eb|-4-444-4-444-4-444-4-444-4-444-4-444-000000-222222-|

CHORUS
Gb|-----------|
Db|-6-4-------|
Ab|-----6---4-|  GUITAR FILL
Eb|-------7---|

GUITAR SOLO 2/OUTRO
Gb|---------------------------|
Db|---------------------------|
Ab|---------------------------| x25
Eb|-4-444-4-444-222222-000000-|




            
            
Suggest correction
Creating personal tab
Creating personal tab
You can edit any tab online and save it as your Personal.

You can edit, replace or remove any tab part or add personal notes – all changes will be seen only by you.

Personal tabs can be accessed anytime from any device, even offline.
Learn more »
comments
print report bad tab
1 comment total.
0 reply
Muti I 31 May 14, 2013 05:14 AM

completely wrong. this is not how lemmy plays it.

guest
You may want to rate the tab now too:
select rating
Wanna post a correction for this tab? Suggest correction