Oops, an error
Loading. Please wait.

La Guerra Di Piero tab

version 1
version 1

Whole song

Interactive

62,585 views 138 this week
2 commentsread comments
1 2 3 4 5
x 15
add to favorites
×
Save as Personal and add changes to this tab that will be seen only by you. Learn more ›
×
You can save this tab as Personal to edit and correct it or add notes. All changes will be seen only by you. Learn more »
launch autoscroll
font size
0
reset
how to read this tab
guitar tuner
edit
Autoscroll
slow
fast
+/-
esc
set tempo
stop
Author
Difficulty
[Intro]
e|-5--5--3--3--0--0----|-0-------------------|
B|-------------------3-|----3--1-------------|
G|---------------------|----------2--0--2----|
D|---------------------|----------------2----|
A|---------------------|---------------------|
E|---------------------|---------------------|

e|-5--5--3--3--0--0----|-0-------------------|
B|-------------------3-|----3--0--------1----|
G|---------------------|----------2--0--2----|
D|-2--2--0--0----------|-------0--2--0-------|
A|-------------3--3--0-|-0--3-----------0----|
E|---------------------|---------------------|

         MI                   LA-              RE-     SOL7       DO
Dormi sepolto in un campo di grano, non e' la rosa, non e' il tulipano 
            MI                    LA-           RE-     MI     LA-
che ti fan veglia dall'ombra dei fossi ma sono mille papaveri rossi. 
            MI               LA-               RE-                  LA-
"Lungo le sponde del mio torrente voglio che scendano i lucci argentati, 
              RE-    SOL7    DO              MI              LA-
non piu' i cadaveri dei soldati portati in braccio dalla corrente". 

Cosi' dicevi ed era d'Inverno e come gli altri, verso l'inferno te ne vai
triste     
come chi deve ed il vento ti sputa in faccia la neve. 

[Interlude]
e|-5-5-3-3-1-0---0-0-|-5-5-3-3-1-0---0---|-0----0-----------|
B|-------------3-----|-------------3-----|-0------3-1-1-----|
G|-------------------|-------------------|------------2-----|
D|-------------------|-------------------|------------------|
A|-------------------|-------------------|------------0-----|
E|-------------------|-------------------|-0----------------|

         MI              LA-                  RE-      SOL7           DO
Fermati Piero, fermati adesso, lascia che il vento ti passi un po' addosso,
                 MI                 LA-                RE-          MI     
    LA-
dei morti in battaglia ti porti la voce, chi diede la vita ebbe in cambio
una croce.

            
            
Suggest correction
Creating personal tab
Creating personal tab
You can edit any tab online and save it as your Personal.

You can edit, replace or remove any tab part or add personal notes – all changes will be seen only by you.

Personal tabs can be accessed anytime from any device, even offline.
Learn more »
comments
print report bad tab
2 comments total.
+1 reply
andre.balian 10 Apr 09, 2016 02:14 PM

|-5--5--3--3--0--0----|-0-------
|-------------------3-|----3--1-

Last note shown here should be a 1, not a zero. (intro)

0 reply
falkets 75 May 03, 2016 10:22 AM

Right! I'll correct it!

guest
You may want to rate the tab now too:
select rating
Wanna post a correction for this tab? Suggest correction