Oops, an error
Loading. Please wait.

Killed By Death tab

version 1
version 1

Whole song

Interactive

56,355 views 39 this week
3 commentsread comments
1 2 3 4 5
x 20
add to favorites
×
Save as Personal and add changes to this tab that will be seen only by you. Learn more ›
×
You can save this tab as Personal to edit and correct it or add notes. All changes will be seen only by you. Learn more »
launch autoscroll
font size
0
reset
how to read this tab
guitar tuner
backing track
0:00
0:00
edit
Autoscroll
slow
fast
+/-
esc
set tempo
stop
In the no remorse album, this song is played in the standard 
 tuning, but when the play it live, the play it tuned down to Eb
D#|-----------------|
A#|-----------------|
F#|--------------5--|
C#|--------7--9--5--|
G#|--3--7--5--7-----|
D#|--1--5-----------|
     F  A  D  E  C

[Intro]
A F D E x2

 [Intro Solo]
     A                                        F
D#|--20-17-20-17-20-17-19-15-17-15^~-\8-10/11\10-8-10~---8-10-----------|
A#|-----------------------------------------------------------8-8h10~-\-|
F#|---------------------------------------------------------------------|
C#|---------------------------------------------------------------------|
G#|---------------------------------------------------------------------|
D#|---------------------------------------------------------------------|

                    D
D#|---------------------------------------------------------|
A#|---------------------------------------------------------|
F#|-/4-5-7^--7-5-4-7~----5---------------------------7-9-5~-|
C#|------------------------7-10-7-7-10-7-10-7-7-10-7--------|
G#|---------------------------------------------------------|
D#|---------------------------------------------------------|

        E  
D#|--------------------------------------|
A#|-----------------<6>----<5>-----------|
F#|-7-5-7^--<7>-<7>----<7>-----<7>--7~-\-|
C#|------(hold bend)---------------------|
G#|--------------------------------------|
D#|--------------------------------------|

I'll put it like this, so this way it's easier for you...and for me

[Verse 1]
A                       C
If you squeeze my lizard
A                       C
I'll put my snake on you
A                       C
I'm a romantic adventure
A                    C
And I'm a reptile too

[Pre-Chorus]
F
But it don't make no difference
D                      E
'cos I ain't gonna be, easy, easy
E
the only time I'm easy's when I'm

[Chorus]
A
Killed by death
F
Killed by death
D
Killed by death
E
Killed by death

[Verse 2]
I'm a lone wolf ligger
But I ain't no pretty boy
I'm a backbone shiver
and I'm a bundle of joy

[Pre-Chorus]
F
But it don't make no difference
D                      E
'cos I ain't gonna be, easy, easy
E
the only time I'm easy's when I'm

[Chorus]
A
Killed by death
F
Killed by death
D
Killed by death
E
Killed by death

[Chorus]
A
Killed by death
F
Killed by death
D
Killed by death
E
Killed by death

[Solo]
A F D E x2

[Bridge] Same as chorus but with palm muting.
A
Killed by death
F
Killed by death
D
Killed by death
E
Killed by death

[Bridge] Same as chorus but with palm muting.
A
Killed by death
F
Killed by death
D
Killed by death
E
Killed by death

[Chorus]
A
Killed by death
F
Killed by death
D
Killed by death
E
Killed by death

enjoy!

            
            
Suggest correction
Creating personal tab
Creating personal tab
You can edit any tab online and save it as your Personal.

You can edit, replace or remove any tab part or add personal notes – all changes will be seen only by you.

Personal tabs can be accessed anytime from any device, even offline.
Learn more »
comments
print report bad tab
3 comments total.
0 reply
DaNb0_SmItTy 10 Jan 26, 2006 04:36 AM

Not much in the tab. Please elaborate.

0 reply
ChamsRock 134 Dec 17, 2010 05:29 PM

I note the lack of a notated solo...

0 reply
jughounder 10 Sep 19, 2016 11:06 AM

intro riff written bass ackwards

guest
Wanna post a correction for this tab? Suggest correction