Oops, an error
Loading. Please wait.

Clavado En Un Bar Chords

version 1
version 1

Whole song

Interactive

by Maná
43,522 views 39 this week
no commentswrite comment
1 2 3 4 5
x 17
add to favorites
×
Save as Personal and add changes to this tab that will be seen only by you. Learn more ›
×
You can save this tab as Personal to edit and correct it or add notes. All changes will be seen only by you. Learn more »
save as personal
new!
launch autoscroll
font size
0
reset
transpose
0
reset
display chords
guitar tuner
backing track
0:00
0:00
Autoscroll
slow
fast
+/-
esc
set tempo
stop
Strumming
There is no strumming pattern for this song yet. and get +5 IQ
This song is really easy, but the solo is very tricky.  I was fooling
around with my guitar and I figured it out in one shot!!


MANÁ-Clavado en un bar.
transcribed by Juan J. Penabad (Guatemala)


Chords:  (use this chord possitions if you want to play it like it is)

     B      E       F#      G#    G#m    D#m
E----7------7-------2------11------4------6
B----7------7-------2------11------4------7
G----8------9-------3------13------4------8
D----9------9-------4------13------6------8
A----9------7-------4------11------6------6
E----7------X-------2------X-------4------x



[Intro]
        B-E-B-E-F#-F# 3 times , the fourth B-E-G#



[verse 1] (reggae):

B
 aquí me tiene bien clavado
F# 
 soltando las penas en un bar
G#m               E
 brindando por su amor 
B
 aquí me tiene abandonado
F# 
 bebiendo tequila pa´olvidar
G#m                 E 
 y sacudirme así el dolor


[pre chorus:]

B       F#     G#m
dónde estás bendita
B       E       F#
dónde te has metido 
D#m             E 
abre un poco el corazón 
D#m         E 
deja amarte corazón
D#m       E          F#
ven y sacame de este bar



[Chorus]

B              D#m
 Estoy clavado, estoy herido
G#m                  E
 estoy ahogado en un bar
B                  D#m   
 desesperado en el olvido amor
G#m                  E
 estoy ahogado en un bar


B-E-B-E-F#-F# 2X


[Verse 2]
(same chords as verse 1)

Se que te buscan demasiados
que te pretenden cantidad
pero eso no es felicidad 
y mi amor nunca se raja
y mi amor nunca jamás te va a fallar
nunca jamás


[pre chorus:] (same chords)

dónde estás maldita
dónde te has metido 
abre un poco el corazón 
deja amarte corazón
ven y sacame de este bar


[Chorus]


[Bridge]

C#m              E
 dejate querer amor
               B  
 quiero ser tu todo
         D#m
 y tu corazón
 
B-C#m               E
  ven a rescatarme amor
                 B 
yo quiero ser tu sol
                 F# 
yo quiero ser tu mar



[Solo]

E----------------------------------------------------------------------------------|
B-----------------------------17--19---17-h-19-p-17---14---------------------------|
G-----16--18--20----16--18--20--------------------------------15-16-13--15p16-13---|
D--/16--16--16---/16--16--16-------------------------------------------------------|
A----------------------------------------------------------------------------------|
E----------------------------------------------------------------------------------|

  I-----------very
fast--------------------------------------------------------I
E---------------------------19-----------I                     I
B--------------------19b(21)--21--20b(21)I                     I
G-----------16-18p16---------------------I haven´t figured     I
D--16-18-20------------------------------I this part out, yet!!I 
A----------------------------------------I                     I
E----------------------------------------I                     I  
(I´ve seen Sergio Vallín(maná´s guitarist) playing this and I know it isn´t
quite right but it sounds right!)


[verse 3:]
(same as verse 1)

aquí me tiene embriagado
llorando de rabia en un bar
brindando por su amor

aquí me tiene bien clavado 
bebiendo tequila pa´olvidar
no es justo amor


(same as chorus)

muy desesperado 
muy en el olvido 
estoy ahogado en un bar
muy desesperado
muy en el olvido 
no, no, no, no,
estoy ahogado en un bar

B-E-B-E-F#-F# 3X  the fourth B-E-B-E-F#-F#-B----B-B



************************************

| h  Hammer-on
| p  Pull-off
| /  Slide up

************************************
Suggest correction
comments
print report bad tab
guest
Wanna post a correction for this tab? Suggest correction