Oops, an error
Loading. Please wait.

The Hill tab

version 2
version 2

Whole song

Interactive

20,085 views 12 this week
3 commentsread comments
1 2 3 4 5
x 18
add to favorites
×
Save as Personal and add changes to this tab that will be seen only by you. Learn more ›
×
You can save this tab as Personal to edit and correct it or add notes. All changes will be seen only by you. Learn more »
launch autoscroll
font size
0
reset
how to read this tab
guitar tuner
edit
Autoscroll
slow
fast
+/-
esc
set tempo
stop
----------------------------------------------------------------------------
                             The Hill - Marketa Irglova and Glen Hansard
----------------------------------------------------------------------------
Tabbed by: corey c.
Email: corgirl2000@hotmail.com

Tuning: standard -- capo 4

e|--0----------------------------------------------------------|
B|-------3----1----0----------0----0---------0-----------------|
G|----0----0----0----0--2--0----0----0--2--0---0---------------|
D|--2--------------1---------------0---------------------------|
A|-------------------------------------------------------------|
E|-------------------------------------------------------------|

e|--------------------------------------------|
B|----------0-----------0---------------------|
G|--0---2-------0---2-------------------------|
D|----2---2---2---2---2---2-------------------|
A|--3-----------3-----------------------------|
E|--------------------------------------------|

Repeat through whole song

            
            
Suggest correction
Creating personal tab
Creating personal tab
You can edit any tab online and save it as your Personal.

You can edit, replace or remove any tab part or add personal notes – all changes will be seen only by you.

Personal tabs can be accessed anytime from any device, even offline.
Learn more »
comments
print report bad tab
3 comments total.
+5 reply
Bill_Meister 53 Dec 14, 2008 09:50 PM

This tab sounds so good! It sounds almost exactly like the piano! Very nice job! Blows all the other tabs for this song on this site out of the water!

0 reply
TattleLuna 10 Jun 06, 2013 10:39 AM

This is so excellent, thank you! There is an instrumental in the real version which would be nice to know too.. but overall really good!

0 reply
daryah.mm 10 Nov 13, 2017 06:49 PM

Wow mega tab! Thank you so much!

guest
You may want to rate the tab now too:
select rating
Wanna post a correction for this tab? Suggest correction