Oops, an error
Loading. Please wait.

Capitán Caribe bass

version 1
version 1

Whole song

by Tronic
1,054 views 1 this week
no commentswrite comment
1 2 3 4 5
3 more votes to show rating
add to favorites
×
Save as Personal and add changes to this tab that will be seen only by you. Learn more ›
×
You can save this tab as Personal to edit and correct it or add notes. All changes will be seen only by you. Learn more »
launch autoscroll
font size
0
reset
guitar tuner
edit
Autoscroll
slow
fast
+/-
esc
set tempo
stop
Author
++++++++++++++++++++++++++
| Tronic- Capitán Caribe |
++++++++++++++++++++++++++


"Forever and ever la misma bota..."

Tuning: EADG


Intro
1.
G|----------------------------------------|
D|----------------------------------------|
A|-555------------3x-3x-3x-3x-2x-3x-3x-44-|
E|-----5-55555555-------------------------|

Verse
"Andar en moto es lo que ama..."
2.
G|-------------------------------------------------------------------------|
D|-------------------------------------------------------------------------|
A|-55555555-55555555-22222222-22222222-------------------------------------|
E|-------------------------------------33333333-33333333-55555555-55555555-|

"Nunca trabaja en las mañanas..."
3.
G|--------------------------------------------------------------------676--|
D|-------------------------------------55555555-55x-55x--77777777-7777---7-|
A|-55555555-55555755-22222222-22222222/------------------------------------|
E|-------------------------------------------------------------------------|

Pre-Chorus
"El capitán caribe..."
4.
G|-------7~---------9~-------------------------------------------|
D|-55x-5----5-77x-7----7-------7~---------6~---------------------|
A|-----------------------55x-5----5-77x-7----7-------------------|
E|---------------------------------------------3-3-3-3-5~--------|

Chorus
"Dime, dime, dime como vives..."
5.
G|-----------------------------------------------------------------|
D|-------4-------------------------------4-------------------------|
A|-55-5-5--------2-------4-55-5-55-22-2-2--------2-------4-55-5-55-|
E|---------33-3-3--55-5-5------------------33-3-3--55-5-5----------|

Outro
6.
G|--------------------------------------------|
D|-------4------------------------------------|
A|-22-2-2--------2-555------------3x-3x-3x-3x-|
E|---------33-3-3------5-55555555-------------|

Verse
"Nunca una mina se la gana..."
7.
G|-------------------------------------------------------------------------|
D|-------------------------------------------------------------------------|
A|-55555555-55555555-22222222-22222222-------------------------------------|
E|-------------------------------------33333333-33333333-55555555-55555555-|

"El siempre hace lo que quiere..."
8.
G|--------------------------------------------------------------------676--|
D|-------------------------------------55555555-55x-55x--77777777-7777---7-|
A|-55555555-55555755-22222222-22222222/------------------------------------|
E|-------------------------------------------------------------------------|

Pre-Chorus
"El capitán caribe..."
9.
G|-------7~---------9~-------------------------------------------|
D|-55x-5----5-77x-7----7-------7~---------6~---------------------|
A|-----------------------55x-5----5-77x-7----7-------------------|
E|---------------------------------------------3-3-3-3-5~--------|

Chorus
"Dime, dime, dime como vives..."
10.
G|-----------------------------------------------------------------|
D|-------4-------------------------------4-------------------------|
A|-55-5-5--------2-------4-55-5-55-22-2-2--------2-------4-55-5-55-|
E|---------33-3-3--55-5-5------------------33-3-3--55-5-5----------|

"De cue, de cue, de cuero su ropa..."
11.
G|---------------------------------|
D|-------4-------------------------|
A|-22-2-2--------2-------4-55-5-55-|
E|---------33-3-3--55-5-5----------|

Outro
"Siempre te ries..."
12.
G|-----------------------------------------------|
D|----4-2-0--------------------------------------|
A|-22-------2---------555------------3x-3x-3x-3x-|
E|------------33-3-33-----5-55555555-------------|

Bridge
13.
G|-------------------------------------------------------------------------|
D|-------------------------------------------------------------------------|
A|-55555555-55555555-22222222-22222222-------------------------------------|
E|-------------------------------------33333333-33333333-55555555-55555555-|

14.
G|-------------------------------------------------------------------------|
D|-------------------------------------55555555-55x-55x--77777777-77777777-|
A|-55555555-55555755-22222222-22222222/------------------------------------|
E|-------------------------------------------------------------------------|

15.
G|------------------------------------|
D|---------------------------99999999-|
A|------------------55555555/---------|
E|-3-3-3-3-55555x---------------------|

Pre-Chorus
"El capitán caribe..."
16.
G|----7~----7~----9~----9~-------------------------------------------|
D|-55----55----77----77-------7~----7~----6~----6~-------------------|
A|-------------------------55----55----77----77----------------------|
E|-------------------------------------------------33333333-55555555-|

Chorus
"Dime, dime, dime como vives..."
17.
G|-----------------------------------------------------------------|
D|-------4-------------------------------4-------------------------|
A|-55-5-5--------2-------4-55-5-55-22-2-2--------2-------4-55-5-55-|
E|---------33-3-3--55-5-5------------------33-3-3--55-5-5----------|

"De cue, de cue, de cuero su ropa..."
18.
G|----------------------------------------------------------------------|
D|-------4----------------------------4-2-0-----------------------------|
A|-22-2-2--------2-------4-55-5-55-22-------2------------------55555555-|
E|---------33-3-3--55-5-5---------------------33-3-33-55555555----------|

"Forever and ever la misma bota..."
19.
G|-------------------------------------|
D|----------55555555-77777777----------|
A|-22222222-------------------55555555-|
E|-------------------------------------|

Outro
20.
G|---------------------------------------|
D|---------------------------------------|
A|-22-2-22---------555-------------------|
E|---------33-3-33-----5~----------------|


Lyrics:


Andar en moto es lo que ama
Y fumar mucha marihuana
Nunca trabaja en las mañanas
Porque de noche si que gana

El capitán caribe

Dime, dime, dime como vives
Capi, capi, capitán caribe
Siempre te ríes
Como roca siempre lo logra

Nunca una mina se la gana
Y jalar coca lo retala
El siempre hace lo que quiere
Y hacer eso lo mantiene

Dime, dime, dime como vives
Capi, capi, capitán caribe
Siempre te ríes
Como roca siempre lo logra
De cue, de cue, de cuero su ropa
Forever and ever la misma bota



+++++++++++++++++++++++++++++++++
| RaiLeff                       |
| Underground__Dora@Hotmail.Com |
+++++++++++++++++++++++++++++++++

            
            
Suggest correction
Creating personal tab
Creating personal tab
You can edit any tab online and save it as your Personal.

You can edit, replace or remove any tab part or add personal notes – all changes will be seen only by you.

Personal tabs can be accessed anytime from any device, even offline.
Learn more »
Give kudos to tab author, rate the tab!
1 2 3 4 5
comments
print report bad tab
guest
You may want to rate the tab now too:
select rating
Wanna post a correction for this tab? Suggest correction