Oops, an error
Loading. Please wait.

El Mar No Cesa tab

version 1
version 1

Whole song

Interactive

3,197 views 1 this week
no commentswrite comment
1 2 3 4 5
3 more votes to show rating
add to favorites
×
Save as Personal and add changes to this tab that will be seen only by you. Learn more ›
×
You can save this tab as Personal to edit and correct it or add notes. All changes will be seen only by you. Learn more »
launch autoscroll
font size
0
reset
how to read this tab
guitar tuner
edit
Autoscroll
slow
fast
+/-
esc
set tempo
stop
Author
Heroes del Silencio - El Mar no Cesa (De acuerdo a mis oidos)
Ever C. LA, CA 12/10/2008 5:35 P.M.

Intro
 |--------------------------------------------------------------|
 |--------------------------------------------------------------|
 |--------9---------------9---------------9---------------9---0-|
 |----9-----9-----9---9-----9-----9---9-----9-----9---9-----9---|
 |--7---7-------7---7---7-------7---7---7-------7---7---7-------|
 |--------------------------------------------------------------|

 |--------------------------------------|
 |--------------------------------------|
 |----------7---------------------------|
 |----4-------5-4-----4-----5---4-------|
 |--5---5-----------5---5---------5-----|
 |--------------------------------------|

 |-----------------|
 |--------8--------|
 |------9---9------|
 |----9-------9----|
 |--7--------------|
 |-----------------|

 |-------------------2--2--2-2---2--2--2-2--|
 |-------------------3--3--3-3---3--3--3-3--|
 |--------0-----4----2--2--2-2---2--2--2-2--|
 |------------2---5-------------------------|
 |--0-5-------------------------------------|
 |------------------------------------------|

Verso 1

 |---------------------------------------------------------------|
 |---------------------------------------------------------------|
 |--------9---------------9---------------9---------------9---0--|
 |----9-----9-----9---9-----9-----9---9-----9-----9---9-----9----|
 |--7---7-------7---7---7-------7---7---7-------7---7---7--------|
 |---------------------------------------------------------------|

 |-------------------------------------|
 |-------------------------------------|
 |----------7--------------------------|
 |----4-------5-4-----4-----5---4------|
 |--5---5-----------5---5---------5----|
 |-------------------------------------|

 |----------------|
 |--------8-------|
 |------9---9-----|
 |----9-------9---|
 |--7-------------|
 |----------------|

 |-------------------2--2--2-2---2--2--2-2--|
 |-------------------3--3--3-3---3--3--3-3--|
 |--------0-----4----2--2--2-2---2--2--2-2--|
 |------------2---5-------------------------|
 |--0-5-------------------------------------|
 |------------------------------------------|

 |--------------------------------------------------------------|
 |--------------------------------------------------------------|
 |--------9---------------9---------------9---------------9---0-|
 |----9-----9-----9---9-----9-----9---9-----9-----9---9-----9---|
 |--7---7-------7---7---7-------7---7---7-------7---7---7-------|
 |--------------------------------------------------------------|

 |-------------------------------------------------|
 |--------------5-----3----------------------------|
 |----------7-----7-----7--------------------------|
 |----4-------5---------------5---4---4---0---4----|
 |--5---5---------------------------5-----------5--|
 |-------------------------------------------------|

 |--2--2--2-2---2--2--2-2--|
 |--3--3--3-3---3--3--3-3--|
 |--2--2--2-2---2--2--2-2--|
 |-------------------------|
 |-------------------------|
 |-------------------------|

Coro 1

        Miro mil puertas......

 |--0-0--0-0--0-0--0-0--3-3--3-3--0-0--0-0--3-3--3-3--|
 |--0-0--0-0--0-0--0-0--0-0--0-0--0-0--0-0--0-0--0-0--|
 |--0-0--0-0--0-0--0-0--0-0--0-0--0-0--0-0--0-0--0-0--|
 |--2-2--2-2--2-2--2-2--0-0--0-0--2-2--2-2--0-0--0-0--|
 |--2-2--2-2--2-2--2-2--2-2--2-2--2-2--2-2--2-2--2-2--|
 |--0-0--0-0--0-0--0-0--3-3--3-3--0-0--0-0--3-3--3-3--|


 |--0-0---0-0---0-0---0-0-|
 |--1-1---1-1---1-1---1-1-|
 |--2-2---2-2---2-2---2-2-|
 |--2-2---2-2---2-2---2-2-|
 |--0-0---0-0---0-0---0-0-|
 |------------------------|


Verso 2

 |--------------------------------------------------------------|
 |--------------------------------------------------------------|
 |--------9---------------9---------------9---------------9---0-|
 |----9-----9-----9---9-----9-----9---9-----9-----9---9-----9---|
 |--7---7-------7---7---7-------7---7---7-------7---7---7-------|
 |--------------------------------------------------------------|

 |-----------------------------------|
 |-----------------------------------|
 |----------7------------------------|
 |----4-------5-4-----4-----5---4----|
 |--5---5-----------5---5---------5--|
 |-----------------------------------|

 |---------------|
 |--------8------|
 |------9---9----|
 |----9-------9--|
 |--7------------|
 |---------------|

 |-------------------2--2--2-2---2--2--2-2---|
 |-------------------3--3--3-3---3--3--3-3---|
 |--------0-----4----2--2--2-2---2--2--2-2---|
 |------------2---5--------------------------|
 |--0-5--------------------------------------|
 |-------------------------------------------|

 |---------------------------------------------------------------|
 |---------------------------------------------------------------|
 |--------9---------------9---------------9---------------9---0--|
 |----9-----9-----9---9-----9-----9---9-----9-----9---9-----9----|
 |--7---7-------7---7---7-------7---7---7-------7---7---7--------|
 |---------------------------------------------------------------|

 |-------------------------------------------------|
 |--------------5-----3----------------------------|
 |----------7-----7-----7--------------------------|
 |----4-------5---------------5---4---4---0---4----|
 |--5---5---------------------------5-----------5--|
 |-------------------------------------------------|

 |--2--2--2-2---2--2--2-2--|
 |--3--3--3-3---3--3--3-3--|
 |--2--2--2-2---2--2--2-2--|
 |-------------------------|
 |-------------------------|
 |-------------------------|


Coro 2

|--0-0--0-0--0-0--0-0--3-3--3-3--0-0--0-0--3-3--3-3--|
|--0-0--0-0--0-0--0-0--0-0--0-0--0-0--0-0--0-0--0-0--|
|--0-0--0-0--0-0--0-0--0-0--0-0--0-0--0-0--0-0--0-0--|
|--2-2--2-2--2-2--2-2--0-0--0-0--2-2--2-2--0-0--0-0--|
|--2-2--2-2--2-2--2-2--2-2--2-2--2-2--2-2--2-2--2-2--|
|--0-0--0-0--0-0--0-0--3-3--3-3--0-0--0-0--3-3--3-3--|


|--0-0---0-0---0-0---0-0--|
|--1-1---1-1---1-1---1-1--|
|--2-2---2-2---2-2---2-2--|
|--2-2---2-2---2-2---2-2--|
|--0-0---0-0---0-0---0-0--|
|-------------------------|

Solo

|-------------------------------------------------------|
|--------17------------------17-------------------------|
|------16--16--16-17-16----16--16--16-17-16-------------|
|----14------17----------14------17-----------16-19--19-|
|-------------------------------------------17----------|
|-------------------------------------------------------|

|---------------------------------|
|-15b(17)(15)----12-12h13p12------|
|-------------14------------------|
|---------------------------------|
|---------------------------------|
|---------------------------------|

|--------------------7-7-7-7------------------------|
|--------------9-9---5-5-5-5------------------------|
|----12-11-9-9-9-9---5-5-5-5---7-7----------7-----7-|
|------------9-9-9---5-5-5-5---7-7---7--7/-9--7/-9--|
|---------------------------------------------------|
|---------------------------------------------------|


|---15-14--15-14--15-14--15-14--15-14----|
|--------12-----12-----12-----12-----12--|
|----------------------------------------|
|----------------------------------------|
|----------------------------------------|
|----------------------------------------|

|----15-14--15-14--15-14--15-14--15-14---|
|---------12-----12-----12-----12-----12-|
|----------------------------------------|
|----------------------------------------|
|----------------------------------------|
|----------------------------------------|


|-------------------------15-14--14----------|
|-7/1515--15--7/1515--15-------12--12-13-13--|
|-7/1414--14--7/1414--14---------------------|
|-------1616--------1616---------------------|
|--------------------------------------------|
|--------------------------------------------|


|-12--12--14--14-------------------------------------------|
|-13--13--15--15---------------------------13-15-17~~~~~~--|
|-12--12--14--14--12-12-11/12/11---11-12-14----------------|
|--------------------------------14------------------------|
|----------------------------------------------------------|
|----------------------------------------------------------|

Coro 3

|--0-0--0-0--0-0--0-0--3-3--3-3--0-0--0-0--3-3--3-3--|
|--0-0--0-0--0-0--0-0--0-0--0-0--0-0--0-0--0-0--0-0--|
|--0-0--0-0--0-0--0-0--0-0--0-0--0-0--0-0--0-0--0-0--|
|--2-2--2-2--2-2--2-2--0-0--0-0--2-2--2-2--0-0--0-0--|
|--2-2--2-2--2-2--2-2--2-2--2-2--2-2--2-2--2-2--2-2--|
|--0-0--0-0--0-0--0-0--3-3--3-3--0-0--0-0--3-3--3-3--|


|--0-0---0-0---0-0---0-0--|
|--1-1---1-1---1-1---1-1--|
|--2-2---2-2---2-2---2-2--|
|--2-2---2-2---2-2---2-2--|
|--0-0---0-0---0-0---0-0--|
|-------------------------|

Los acordes del coro deben de tocarse durante todo el coro.
Cuando escuches la cancion te daras cuenta mas o menos
de el tiempo.

Me hubiese gustado poder decifrar las notas del el coro mas a
fondo pero se me hiso dificil. Aqui esta con la mejor version que
encontre, la demas que encontre en internet no me sirvieron mucho
so decidi hacer me propria tablatura.
Espero les sirva.

Kobain_plusa@hotmail.com

            
            
Suggest correction
Creating personal tab
Creating personal tab
You can edit any tab online and save it as your Personal.

You can edit, replace or remove any tab part or add personal notes – all changes will be seen only by you.

Personal tabs can be accessed anytime from any device, even offline.
Learn more »
Give kudos to tab author, rate the tab!
1 2 3 4 5
comments
print report bad tab
guest
You may want to rate the tab now too:
select rating
Wanna post a correction for this tab? Suggest correction