Oops, an error
Loading. Please wait.

Soñando bass

version 1
version 1

Whole song

by Tronic
220 views 1 this week
no commentswrite comment
1 2 3 4 5
3 more votes to show rating
add to favorites
×
Save as Personal and add changes to this tab that will be seen only by you. Learn more ›
×
You can save this tab as Personal to edit and correct it or add notes. All changes will be seen only by you. Learn more »
launch autoscroll
font size
0
reset
guitar tuner
edit
Autoscroll
slow
fast
+/-
esc
set tempo
stop
Author
+++++++++++++++++++
| Tronic- Soñando |
+++++++++++++++++++


"So nos dieran a elegir como querer morir sería cantando..."

Tuning: EADG


Intro.
1.                            
G|-----------------------------------------------------|
D|----44-22-4-0x--0-44-22-4------44-00-4-------44-00-4-|
A|-55-------------------------22---------2x--2---------|
E|-----------------------------------------------------|

2.                            
G|----------------------------------------------|
D|----------------------------------------------|
A|-00-55-00-5-0x--0-55-00-5---------------------|
E|----------------------------33333333-33333333-|

Verse
"Nunca es facil comenzar..."
3.
G|-------------------------------------------------------------------------|
D|-------------------------------------------------------------------------|
A|-55555555-55555555-22222222-22222222-00000000-00000000-------------------|
E|-------------------------------------------------------33333333-33333333-|

"Siempre algien se opondrá..."
4.
G|-------------------------------------------------|
D|----44-22-44----44-22-44----44-00-44----44-00-44-|
A|-55----------55----------22----------22----------|
E|-------------------------------------------------|

"Y estar kontento..."
5.
G|-------------------------------------------|
D|-------------------------------------------|
A|-00-55-00-55-00-55-00-55-------------------|
E|-------------------------33333333-33333333-|

Chorus
"Hoy estamos cantando aqúi..."
6.
G|-----------------------------------------------------|
D|----44-22-4-0x--0-44-22-4------44-00-4-------44-00-4-|
A|-55-------------------------22---------2x--2---------|
E|-----------------------------------------------------|

"Estamos tocando aquí..."
7.                            
G|----------------------------------------------|
D|----------------------------------------------|
A|-00-55-00-5-0x--0-55-00-5---------------------|
E|----------------------------33333333-33333333-|

Verse
"Cuatro años sin parar..."
8.
G|-------------------------------------------------------------------------|
D|-------------------------------------------------------------------------|
A|-55555555-55555555-22222222-22222222-00000000-00000000-------------------|
E|-------------------------------------------------------33333333-33333333-|

"Si la musica es tu pasión..."
9.
G|-------------------------------------------------|
D|----44-22-44----44-22-44----44-00-44----44-00-44-|
A|-55----------55----------22----------22----------|
E|-------------------------------------------------|

"Con el mundo..."
10.
G|-------------------------------------------|
D|-------------------------------------------|
A|-00-55-00-55-00-55-00-55-------------------|
E|-------------------------33333333-33333333-|

Chorus
"Hoy estamos cantando aqúi..."
11.
G|-----------------------------------------------------|
D|----44-22-4-0x--0-44-22-4------44-00-4-------44-00-4-|
A|-55-------------------------22---------2x--2---------|
E|-----------------------------------------------------|

"Estamos tocando aquí..."
12.                            
G|----------------------------------------------|
D|----------------------------------------------|
A|-00-55-00-5-0x--0-55-00-5---------------------|
E|----------------------------33333333-33333333-|

Bridge
13.
G|------------------------------------|
D|------------------------------------|
A|-222x------000x---------------------|
E|---------------------333x---333x-5~-|

Chorus
"Hoy estamos cantando aqúi..."
14.
G|-----------------------------------------------------|
D|----44-22-4-0x--0-44-22-4------44-00-4-------44-00-4-|
A|-55-------------------------22---------2x--2---------|
E|-----------------------------------------------------|

"Estamos tocando aquí..."
15.                            
G|----------------------------------------------|
D|----------------------------------------------|
A|-00-55-00-5-0x--0-55-00-5---------------------|
E|----------------------------33333333-33333333-|

"Hoy estamos cantando aqui..."
16.
G|-------------------------------------------------------|
D|-------------------------------------------------------|
A|-22222222-22222222-00000000-00000000-------------------|
E|-------------------------------------33333333-33333333-| 

17.
G|----------------------|
D|----------------------|
A|-------------------5~-|
E|-55555555-55555555----|                  


Lyrics:


Nunca es facil comenzar
Nunca es facil encontrar el buen camino
Siempre alguien se opondrá
Solo debes ignorar y estar kontento

Hoy estamos cantando aqui
Estamos tocando aqui soñando

Cuatro años sin parar
En la misma dirección, seguimos creciendo
Si la musica es tu pasión
Tu deber es compartirla con el mundo

Si nos dieran a elegir
Como querer morir sería cantando



+++++++++++++++++++++++++++++++++
| RaiLeff                       |
| Underground__Dora@hotmail.com |
+++++++++++++++++++++++++++++++++

            
            
Suggest correction
Creating personal tab
Creating personal tab
You can edit any tab online and save it as your Personal.

You can edit, replace or remove any tab part or add personal notes – all changes will be seen only by you.

Personal tabs can be accessed anytime from any device, even offline.
Learn more »
Give kudos to tab author, rate the tab!
1 2 3 4 5
comments
print report bad tab
guest
You may want to rate the tab now too:
select rating
Wanna post a correction for this tab? Suggest correction