Oops, an error
Loading. Please wait.

Veteran Of The Psychic Wars tab

version 1
version 1

Whole song

Interactive

12,662 views 27 this week
1 commentread comment
1 2 3 4 5
x 4
add to favorites
×
Save as Personal and add changes to this tab that will be seen only by you. Learn more ›
×
You can save this tab as Personal to edit and correct it or add notes. All changes will be seen only by you. Learn more »
launch autoscroll
font size
0
reset
how to read this tab
guitar tuner
edit
Autoscroll
slow
fast
+/-
esc
set tempo
stop
Author
---------------------------------------------------------------------------
             VETERAN OF THE PSYCHIC WARS - Blue Öyster Cult
---------------------------------------------------------------------------
Tuning:Standard

This is a combination of the guitar and keyboard. Youll have to listen to the song 
to get the timing.

Intro    x4          x2                       x2
e|-13--11-|-10-------10|-10-------8-10-8-------|-----|
B|--------|----11------|----11-----------8-11--|-----|
G|-10--8--|-------12---|-------12--------------|-----|
D|--------|------------|-----------------------|-5---|
A|--------|------------|-----------------------|-5---|
E|--------|------------|-----------------------|-3---|

Verses            x2         
e|-10-------8---6--|-------------------|
B|-8----6---5---4--|-------------------|
G|-----------------|-------------------|
D|-5----5---5---5--|-5-----5-----8-----|
A|-----------------|-3--5--3--5--6--5--|
E|-----------------|----3-----3-----3--|
You see...       And I'm young...All the scars...


e|-----------------------|--------------------|
B|-----------------------|--------------------|
G|-----------------5---5-|--------7-7-7-7-----|
D|-5-8-------------5---5-|--------7-7-7-7-----|
A|-----5-3-5-------3---3-|--------5-5-5-5-----|
E|-----------3-1-3-------|--------------------|
                    I'm not sure...

Chorus
e|------------------|-----------------------------|
B|-------------8----|-----------------------------|
G|-5-------5---5--5-|-5-7-5-------5-7-8-10-12-5~--|
D|-5---5---5------5-|-------5-8~------------------|
A|-3---5---3------3-|-----------------------------|
E|-----3------------|-----------------------------|
Don't let...
                               x2
e|--------|---------------------|----------------------|
B|--------|---------------------|----------------------|
G|--5-----|---------------------|----------------------|
D|--5---5-|---------------------|-3-5---3-5-3----------|
A|--3---5-|-5--8--10-10-10-8-10-|-1-3---1-3-1-5-3-5----|
E|------3-|-3--6--8--8--8--6-8--|-------------3-1-3----|
It's time...                  Oh Please...

Outro:   x5
e|-13--11-|--13-----------------|
B|--------|--11---3-5-3---------|
G|-10--8--|-------3-5-3-5-3-5---|
D|-8---8--|--8----1-3-1-5-3-5---|
A|--------|-------------3-1-3---|
Don't let...

Sorry, no solo. You'll have to improv it. I think it's in the key
of A# Pentatonic Major (G Pentatonic minor). This goes for both
the slow solo, the fast solo(in the live version), and the fills.

            
            
Suggest correction
Creating personal tab
Creating personal tab
You can edit any tab online and save it as your Personal.

You can edit, replace or remove any tab part or add personal notes – all changes will be seen only by you.

Personal tabs can be accessed anytime from any device, even offline.
Learn more »
comments
print report bad tab
1 comment total.
0 reply
Lendore 10 Apr 19, 2017 02:11 PM

thats a cool tab, thanks

guest
You may want to rate the tab now too:
select rating
Wanna post a correction for this tab? Suggest correction