Oops, an error
Loading. Please wait.
We have Chord Pro version of Für Elise.
It's the closest thing you can get to the original song and it has interactive parts. Check out the tab »
×
26,764 views 12 this week
5 commentsread comments
1 2 3 4 5
x 10
add to favorites
×
Save as Personal and add changes to this tab that will be seen only by you. Learn more ›
×
You can save this tab as Personal to edit and correct it or add notes. All changes will be seen only by you. Learn more »
launch autoscroll
font size
0
reset
guitar tuner
backing track
0:00
0:00
edit
Autoscroll
slow
fast
+/-
esc
set tempo
stop
Author
G|-9--9--9---------------------------------------|
D|--13-13--9-12-11-7------7-10-9--------9-11-10--|
A|-----------------0----7-let ring---11-let ring-|
E|-----------------------------------------------|

G|-9--9--9---------------------------------------|
D|--13-13--9-12-11-7------7-10-9--------9-11-7---|
A|-----------------0----7-let ring---11-let ring-|
E|-----------------------------------------------|

G|-9--9--9---------------------------------------|
D|--13-13--9-12-11-7------7-10-9--------9-11-10--|
A|-----------------0----7-let ring---11-let ring-|
E|-----------------------------------------------|

G|-9--9--9---------------------------------------|
D|--13-13--9-12-11-7------7-10-9--------9-11-7---|
A|-----------------0----7-let ring---11-let ring-|
E|-----------------------------------------------|

G|-4-5-7-9----0-10-9-7----0-9-7-5----0-7-5-4-----|
D|-----------------------------------------------|
A|-----------------------------------------------|
E|-------8-----------3----------5----------0-----| (let ring this notes,
                                                   when you are holding
G|-----------------------------------------------| the 3 you need to tap
D|---9--9-9--------------------------------------| the 9)
A|--7--7-----------------------------------------|
E|-0--0------------------------------------------| 
                                                   
G|-9--9--9---------------------------------------|
D|--13-13--9-12-11-7------7-10-9--------9-11-10--|
A|-----------------0----7-let ring---11-let ring-|
E|-----------------------------------------------|

G|-9--9--9---------------------------------------|
D|--13-13--9-12-11-7------7-10-9--------9-11-7---|
A|-----------------0----7-let ring---11-let ring-|
E|-----------------------------------------------|

G|-4-5-7-9----0-10-9-7----0-9-7-5----0-7-5-4-----|
D|-----------------------------------------------|
A|-----------------------------------------------|
E|-------8-----------3----------5----------0-----| (let ring this notes,
                                                   when you are holding
G|-----------------------------------------------| the 3 you need to tap
D|---9--9-9--------------------------------------| the 9)
A|--7--7-----------------------------------------|
E|-0--0------------------------------------------| 
                                                    
G|-9--9--9---------------------------------------|
D|--13-13--9-12-11-7------7-10-9--------9-11-10--|
A|-----------------0----7-let ring---11-let ring-|
E|-----------------------------------------------|

G|-9--9--9---------------------------------------|
D|--13-13--9-12-11-7------7-10-9--------9-11-7---|
A|-----------------0----7-let ring---11-let ring-|
E|-----------------------------------------------|

G|-----------------------------------------------|
D|-10--10--10------------------------------------|
A|-8---9---10------------------------------------|
E|-----------------------------------------------|


G|-----10-9-9------15-14-14-12-10----------------|
D|-10----------12-----------------14-12-10-------|
A|-----------------------------------------13-12-|
E|-----------------------------------------------|

G|-----------------------------------------------|
D|-------------10--12-13-14--14-15---------------|
A|-12-10-12-13---------------------12-15---------|
E|-----------------------------------------------|

G|-----------------------------------------------|
D|-12-10-9-10-12-----9-10------------------------|
A|-----------------------------------------------|
E|-----------------------------------------------|

this is how i end this song, in some weeks i'll tab
the next part of the song, this is how i play it,
i put out some mistake that i make
hope you like it.

            
            
Suggest correction
Creating personal tab
Creating personal tab
You can edit any tab online and save it as your Personal.

You can edit, replace or remove any tab part or add personal notes – all changes will be seen only by you.

Personal tabs can be accessed anytime from any device, even offline.
Learn more »
comments
print report bad tab
5 comments total. Showing first comments.
0 reply
wakeke 30 Mar 29, 2009 06:41 AM

nice.. this sounds better

+1 reply
Marcel117 10 May 15, 2009 12:01 PM

I suggest you try a different fingering, instead of the 9,13,9,13 you can also play 9,8,9,8 all on the G string (like intro ver 2). If you improve the fingering this is a great tab.

0 reply
alekz_v 70 May 15, 2009 02:33 PM

thankz marcel117, but i need to play the different fingering so i can think about the change, anyway thankz for the comment, in a few weeks i tab the next part, i want to tab it all, i tell you when its all done. lol (sorry for my bad english).

guest
You may want to rate the tab now too:
select rating
Wanna post a correction for this tab? Suggest correction