Oops, an error
Loading. Please wait.

Pijamas Tab

5,053 views 3 this week
no commentswrite comment
1 2 3 4 5
please rate
add to favorites
launch autoscroll
font size
0
reset
how to read this tab
guitar tuner
Tab Pro tools
  • play this tab
  • loop segment
  • change instrument
  • show fretboard
  • metronome
×
Best way to learn
"Pijamas"
Autoscroll
slow
fast
+/-
esc
set tempo
stop
Contributor
---------------------------------------------------------------
                          PIJAMAS - Babasónicos
---------------------------------------------------------------
Tabbed by/Transcripción por: Sebastián Ara.
Buenos Aires, Argentina
Email MSN: playing.the.angel_@hotmail.com

·INTRO:
>Acordes del INTRO:C#m E A B / G#m C#m A B
>Acompañamiento del INTRO:
e|----0-0-0----------2-2-2-----------4-4-4---------5-5-5----7-7--|
B|-0h2-2----(x2)--0h2-2-----(x2)--0h2-2----(x2)-0h2-2----0h2-----|
G|---------------------------------------------------------------|
D|---------------------------------------------------------------|
A|---------------------------------------------------------------|
E|---------------------------------------------------------------|

·VERSOS:
>Acordes de los VERSOS: C#m E A B / G#m C#m A B
>(La guitarra Segunda no hace nada)

>C#m E A B / G#m C#m A F#m B
>(Aca empieza el acompañamiento de nuevo:)
e|----0-0-0----------2-2-2-----------4-4-4------|
B|-0h2-2----(x2)--0h2-2-----(x2)--0h2-2----(x2)-|
G|----------------------------------------------|
D|----------------------------------------------|
A|----------------------------------------------|
E|----------------------------------------------|


·ESTRIBILLO:
>Acordes del ESTRIBILLO:
A B G#m C#m
A B G#m C#m
A B...
>Guitarra segunda acompañando:
e|----------------------------|
B|---------------------5-7/9--|
G|--------------4-6/9---------|
D|-------2-4/6----------------|
A|0-2/4-----------------------|
E|----------------------------|
(se escucha bajo, repite una vez más)


·VERSOS 2:
>Acordes de VERSOS 2: C#m E A B / G#m C#m A B
>(La guitarra Segunda no hace nada)

>C#m E A B / G#m C#m A F#m B
>(Aca empieza el acompañamiento de nuevo:)
e|----0-0-0----------2-2-2-----------4-4-4------|
B|-0h2-2----(x2)--0h2-2-----(x2)--0h2-2----(x2)-|
G|----------------------------------------------|
D|----------------------------------------------|
A|----------------------------------------------|
E|----------------------------------------------|


·PUENTE:
>Acordes del Puente:
A B G#m C#m (x3)
A B...
>Acompañamiento de Guitarra Segunda:
                        /    x2
e|----0-0-0-|----2-2-2-|----4-4-4----|
B|-0h2-2----|-0h2-2----|-0h2-2-------|
G|-----------------------------------|
D|-----------------------------------|
A|-----------------------------------|
E|-----------------------------------|
(Se escucha bajo repite 4 veces)


·ESTRIBILLO:
>(Mismos acordes que los estribillos anteriores,
>Mismo punteo de la guitarra segunda)

·VERSOS 3:
>Acordes de los VERSOS 3:
C#m E A B / G#m C#m A B
C#m E A B / G#m C#m A F#m B
>(La guitarra Segunda no hace nada)


·BREAK (sin acordes, solo el punteo):
e|-0-2/4------------------------|
B|------------------------------|
G|------------------------------|
D|------------------------------|
A|-----------------------2-4/7!-|
E|------------------------------|
  \"Te llamé, para vernos........ se me ocurren tantas cosas\"


·ESTRIBILLO:
>(Mismos acordes que los estribillos anteriores,
>Mismo punteo de la guitarra segunda)


·OUTTRO:
>Acordes del OUTTRO:
C#m E A B / C#m E A B
C#m...

>Guitarra segunda:
e|----------------------------|
B|---------------------5-7/9--|
G|--------------4-6/9---------|
D|-------2-4/6----------------|
A|0-2/4-----------------------|
E|----------------------------|
Repite hasta el final


____________________
Transcripto por: Sebastián Arashiro
Buenos Aires, Argentina. 2009
Email MSN: playing.the.angel_@hotmail.com
comments
We did not receive enough feedback on this tab! Please rate:
print report bad tab
1 2 3 4 5
I want to post or [tab]
guest
You may want to rate the tab now too:
select rating
Please do not post tabs as comments. Select "correction" instead!