Oops, an error
Loading. Please wait.

Hellraiser bass

version 1
version 1

Whole song

Interactive

18,349 views 18 this week
1 commentread comment
1 2 3 4 5
x 6
add to favorites
×
Save as Personal and add changes to this tab that will be seen only by you. Learn more ›
×
You can save this tab as Personal to edit and correct it or add notes. All changes will be seen only by you. Learn more »
launch autoscroll
font size
0
reset
guitar tuner
edit
Autoscroll
slow
fast
+/-
esc
set tempo
stop
Hellraiser

                               Motorhead

Originally released on the "March Or Die" album

Tune down to Eb.


Where a separate bass line is not shown, the bass plays the same as the
guitar (play root notes of chords).

[Bass Intro]                    
G|-0--------|-----------------| play the verse
D|----------|-----------------| riff from here
A|----------|-----------------| on until the 
E|----------|--3-3-3-3-3-33-33| fill (below)
  vol swell-

Bass under 1st guitar fill
G|-----------------------------------------------------------------------------|
D|---------------------------3-3h5-5-5-5-5-3-----------------------------------|
A|---------------------3-4-5-----------------5-3-3-3-3-3-3-3-3-3-3-3-3-3-3-/-\-|
E|-33-33-3-3-3-3-3-3-3---------------------------------------------------------|

Guitar Fill
e|-----------------------|-----------------------|------|
B|-----------------------|-----------------------|------|
G|-<5>b-p3---3-3---------|-<5>b-p3---3-3-5~------|------|
D|--------h5-----5-------|--------h5-----5~------|------|
A|-----------------------|-----------------------|-5-5\-|
E|-----------------------|-----------------------|-3-3\-|
The bass plays the verse riff under this, except during the intro (see
above).

[Verse]
  Guitar (play muted notes only after first line of verses)
e|-------------------|
B|-------------------|
G|-------------------|
D|-------------------|
A|-5--5--5-5-5-5-5-5-|
E|-3--3--3-3-3-3-3-3-|
 |       . . . . . . |
 |Bass               |
G|-------------------|
D|-------------------|
A|-------------------|
E|-33-33-3-3-3-3-3-3-|

[Pre-Chorus] (Bass does a slide up at the end)
e|------------------------------|--------------------|
B|------------------------------|--------------------|
G|--------5---------------------|-------5------------|
D|-3---3--5---------------------|-3---3-5--5-5-5-5-5-|
A|-3---3--3---------------------|-3---3-3--3-3-3-3-3-|
E|-1---1-------1-2-3-1-2-3-1-3--|-1---1--------------|
              

[Chorus]         x3                      x1
e|---------------|-----------------------|
B|---------------|-----------------------|
G|----3------5---|-----------------------|
D|-5--3---3--5---|-3-3-3-3-3-3-3-3-------|
A|-5--1---3--3---|-1-1-1-1-1-1-1-1-3--3--|
E|-3------1------|-----------------1--1--|
                   . . . . . . . . .  .

[Solo Backing]
e|------------------------------------------------|-----------------|
B|------------------------------------------------|-----------------|
G|------------------------------------------------|-----------------|
D|------------------------------------------------|--3--3----5--52--|
A|-----------5-3-------------3-1~------------5-3--|-51--13--53--30--|
E|-3-4-5-3-5-----5-1-2-3-1-3-----3-3-4-5-3-5-----5|-3----1--3-------|


               x3                                         x1
e|---------------|------------------------------------------|
B|---------------|------------------------------------------|
G|----3------5---|------------------------------------------|
D|-5--3---3--5---|-3-3-3-3-3-3-3-3---3--3----5--52----------|
A|-5--1---3--3---|-1-1-1-1-1-1-1-1--51--13--53--30--5-------|
E|-3------1------|------------------3----1--3-------3-------|
                   . . . . . . . .

Coda w/guitar & bass fills/solos
e|----------------------------------------------------------------|
B|----------------------------------------------------------------|
G|----------------------------------------------------------------|
D|----------------------------------------------------------------|
A|-5-5-5-5-5-5-5-5-5-5-5-5-5-5-5-5-5-5-5-5-5-5-5-5-5-5-5-5-5-5-5-5|
E|-3-3-3-3-3-3-3-3-3-3-3-3-3-3-3-3-3-3-3-3-3-3-3-3-3-3-3-3-3-3-3-3|
 | . . . . . . . . . . . . . . . . . . . . . . . . . . . . . . . .
 |Bass               
G|---------------------------3-5-7--5-3---------------------------|
D|--------------------3-5---------------5-5-5-5-3h5-3h5-3h5-etc.--|
A|-------------3-4--5---------------------------------------------|
E|-3-3-3-3-3-5----------------------------------------------------|



************************************

 .  = palm mute
b/r = bend/release
h/p = hammer on/pull off
< > = artificial/pinch harmonic
/ \ = slide up/down
~   = vibrato

************************************

            
            
Suggest correction
Creating personal tab
Creating personal tab
You can edit any tab online and save it as your Personal.

You can edit, replace or remove any tab part or add personal notes – all changes will be seen only by you.

Personal tabs can be accessed anytime from any device, even offline.
Learn more »
comments
print report bad tab
1 comment total.
0 reply
tiny.t42200 10 Nov 24, 2016 12:30 AM

Yeah not correct at all.

guest
Wanna post a correction for this tab? Suggest correction