Oops, an error
Loading. Please wait.

One Of These Days chords

by 78 Saab
620 views 1 this week
no commentswrite comment
1 2 3 4 5
2 more votes to show rating
add to favorites
×
Save as Personal and add changes to this tab that will be seen only by you. Learn more ›
×
You can save this tab as Personal to edit and correct it or add notes. All changes will be seen only by you. Learn more »
launch autoscroll
font size
0
reset
transpose
0
reset
display chords
guitar tuner
edit
Autoscroll
slow
fast
+/-
esc
set tempo
stop
Strumming
There is no strumming pattern for this song yet. and get +5 IQ
78 Saab - One of These Days

Capo 5th fret

Chords used:
     Am    C   Em7  G6 Fmaj7  Em Gsus11
e-(5)-|-0---0---0---0---0---0---0
B-(5)-|-1---1---0---0---1---0---1
G-(5)-|-2---0---0---0---2---0---0
D-(5)-|-2---2---0---0---3---2---0
A-(5)-|-0---3---2---2-------2---2
E-(5)-|---------0---3-------0---3

Intro:

Am - C -Em7- G6 

       Am             C              Em7            G6
e-(5)-|---3---0------|---3---0------|--------------|---------------|
B-(5)-|------------1-|------------0-|---1---3------|---0---1-------|
G-(5)-|--------------|--------------|------------0-|------------2--|
D-(5)-|--------------|--------------|--------------|---------------|
A-(5)-|--------------|--------------|--------------|---------------|
E-(5)-|--------------|--------------|--------------|---------------|


Verse:

Am      C     Em7    G6

Pre-Chorus:

e-(5)-|-0-0-0-0-0-0-0-0-|            x2
B-(5)-|-1-1-1-1-1-1-1-1-|
G-(5)-|-2-2-2-2-2-2-2-2-|
D-(5)-|-2-0-2-0-2-0-2-0-|
A-(5)-|-0-0-0-0-0-0-0-0-|
E-(5)-|-----------------|

Chorus:

G6  C  Fmaj7  C
G6  C  Fmaj7  C
Em     G6 Gsus11

Verse 1:
Oh the bluest skies contain no answers
Unlock no riddles or crossword clues
Just a lazy trail of jetplane vapours
Drifting into, the ebb and flow

Verse 2:
Tangled up in all these singing wires
A million signals lose their way
From the broken hearts to the disconnected 
The flush of flame, and the jack of trades

Chorus 1:
You're out beyond, the twilight and the haze
Bottle up inside its easier this way
One of these days, you'll let go

Chorus 2:
You're out beyond, the sklyline and the stars
Floating up above, the neon lights and cars 
One of these days, you'll let go
One of these days, you'll let go

Intro x2
Verse 1
Intro x1
Verse 2
Pre-Chorus
Chorus 1
Intro x1
Verse 1
Pre-Chorus
Chorus 1
Chorus 2
Instrumental (Chorus without lyrics)
Intro
end on Am


Its a bit shoddy but you get the general idea
Dunno if the chord names are completely correct
love mail? hate mail? send to stuff.stuff26@gmail.com

            
            
Suggest correction
Creating personal tab
Creating personal tab
You can edit any tab online and save it as your Personal.

You can edit, replace or remove any tab part or add personal notes – all changes will be seen only by you.

Personal tabs can be accessed anytime from any device, even offline.
Learn more »
Give kudos to tab author, rate the tab!
1 2 3 4 5
comments
print report bad tab
guest
You may want to rate the tab now too:
select rating
Wanna post a correction for this tab? Suggest correction