Oops, an error
Loading. Please wait.

Cuando Pienses En Volver Tab

5,039 views 9 this week
no commentswrite comment
1 2 3 4 5
please rate
add to favorites
launch autoscroll
font size
0
reset
how to read this tab
guitar tuner
Tab Pro tools
  • play this tab
  • loop segment
  • change instrument
  • show fretboard
  • metronome
×
Best way to learn
"Cuando Pienses En Volver"
Autoscroll
slow
fast
+/-
esc
set tempo
stop
Contributor
Intro

F#m

|-------------------------|
|-------------------------|
|-------------------------|
|-4------2-4------2---2---|
|------4--------4---4---4-|
|-------------------------|

F#m E A D E

|--------7------9------10-9----7-----12-7-----|
|10-7-10---9-----10-7------10---9---------(9)-|
|-------------9--------------------9----------|
|---------------------------------------------|
|---------------------------------------------|
|---------------------------------------------|


F#m E A D E

|--------7------9------10-9----7-----12-7---7-----12-7--|
|10-7-10---9------10-7------10---9--------9---9--------9|
|-------------9--------------------9------------9-------|
|-------------------------------------------------------|
|-------------------------------------------------------|
|-------------------------------------------------------|



>>>>>CORO

A              D       A
Cuando pienses en volver
F#m            D            B#m         E
aquí estan tus amigos tu lugar y tu mujer
      F#m E A     D                      F#m
y te abrazarán dirán que el tiempo no pasó
  E             A
y te amarán con todo el corazón


VERSO I
D                             C#m
trabajas hasta muy tarde y no puedes descansar
D                            A         E
las palabras de tu mádre empiesan a sonar
D                               C#m
cuando tu te estes muriendo por un poco de amor
D                        A        E
hijito sigue adelante domina el corazón


F#m      E          A         D      E  E
debes sacar los tormentos de tu corazón
F#m        E          A           D            E
pues el dolor no es eterno y pronto saldra el sol
E
saldra el sol


>>>>>CORO


VERSO II
D                               C#m
Puede ser que en tu tierra no habia donde ir
D                                A    E
puede ser que tus sueños no tenian lugar
D                            C#m
pero solo en tu cuarto tu tendrás que admitir
D                             A         E
que podía haber pobreza pero nunca soledad



F#m        E          A         D      E  E
quieres sacar los tormentos de tu corazón
F#m        E          A           D            E
pues el dolor no es eterno y pronto saldra el sol
E
saldra el sol


>>>>>CORO



>>>>>Trompetas


Flauta: A D C#m A


|-----------|
|---7-9-5---|
|-7-------6-|
|-----------|
|-----------|
|-----------|

|-------7-9-7------|
|---7-9-------10-9-|
|-7----------------|
|------------------|
|------------------|
|------------------|

|------------------|
|-7-10-9-5---------|
|----------6-------|
|------------------|
|------------------|
|------------------|

|-------7-9-7------|
|---7-9-------10-9-|
|-7----------------|
|------------------|
|------------------|
|------------------|




F#m     E            A        D         E   E
quieres sacar los tormentos de tu corazón
F#m      E         A            D           E
pues el dolor no es eterno y pronto saldra el sol
E
saldra el sol


>>>>>CORO


A               D    A
Cuando ya no estes acá
F#m                D           B#m            E
Trabaja hasta las lágrimas como lo hacias allá
     F#m E  A      D                A
Solo asi veras que tu pais no fracaso
E                            A
Si no que tanto amor te relajó
      F#m E A     D                      A
y te abrazarán dirán que el tiempo no pasó
E                            A
y te amarán con todo el corazón


...F#m
comments
We did not receive enough feedback on this tab! Please rate:
print report bad tab
1 2 3 4 5
I want to post or [tab]
guest
You may want to rate the tab now too:
select rating
Please do not post tabs as comments. Select "correction" instead!