Oops, an error
Loading. Please wait.

Call From The Grave Bass Tab

315 views 1 this week
no commentswrite comment
1 2 3 4 5
please rate
add to favorites
launch autoscroll
font size
0
reset
guitar tuner
Tab Pro tools
  • play this tab
  • loop segment
  • change instrument
  • show fretboard
  • metronome
Autoscroll
slow
fast
+/-
esc
set tempo
stop
Contributor
ARTIST:DAEMONARCH
MUSIC: CALL FROM THE GRAVE (Album:Hermeticum,Track 4 4:37)
BASS PLAYER:SÉRGIO CRESTANA
BASS TABLATURE:NARCISO (PT) Email:Gothbass31@vampirefreaks.com

Riff  1
E -------------------------|
A -4-4-------------6-6-6-6-|
D ------6-6-6-5-5----------|
G -------------------------|

Riff  2
E -1-1-1-1-1-1-1-1-1-1-1-1-2-2-2-2-2-2-1-1-1-1-0-0-0-0-|
A -----------------------------------------------------|
D -----------------------------------------------------|
G -----------------------------------------------------|

Riff  3
E -3-0-0-0-3-0-0-0-3-0-0-0-3-2-|
A -----------------------------|
D -----------------------------|
G -----------------------------|

Riff 4
E-------------------------------------------------------|
A-7-7-7-7-7-7-7-7-5-5-5-3-3-3-3-3-3-3-3-2-2-2-2-5-5-5-5-|
D-------------------------------------------------------|
G-------------------------------------------------------|

Riff 5
E---------------------------|
A---------------------------|
D-2-2-2-2-2-2-5-4-4-2-2-0-2-|
G---------------------------|

Riff 6
E-------------------|
A-------------------|
D-2-3-3-2-2-5-5-5-5-|
G-------------------|

Riff 1    8 X (00:00)
Riff 2    8 X (00:30)
Riff 1    4 X (01:16)
Riff 2    6 X (01:30)
Riff 3    8 X (02:16)
Riff 4    4 X (02:45)
Riff 5    2 X (03:17)
Riff 6    4 X (03:32)
Riff 1    4 X (03:46)
Riff 3    8 X (04:02)

www.myspace.com/daemonarchmetal
comments
We did not receive enough feedback on this tab! Please rate:
print report bad tab
1 2 3 4 5
I want to post or [tab]
guest
You may want to rate the tab now too:
select rating
Please do not post tabs as comments. Select "correction" instead!