Oops, an error
Loading. Please wait.

Barcos Gregos Bass Tab

388 views 1 this week
no commentswrite comment
1 2 3 4 5
please rate
add to favorites
launch autoscroll
font size
0
reset
guitar tuner
Tab Pro tools
  • play this tab
  • loop segment
  • change instrument
  • show fretboard
  • metronome
×
Best way to learn
"Barcos Gregos"
Autoscroll
slow
fast
+/-
esc
set tempo
stop
Contributor
ARTIST:XUTOS E PONTAPÉS
MUSIC:BARCOS GREGOS (Circo de Feras,1987 Polygram Track 01 03:54)
BASS PLAYER:TIM

Riff 1
E-7-7-7-7-6-6-6-6-5-5-5-5-6-6-6-6-|
A---------------------------------|
D---------------------------------|
G---------------------------------|

Riff 2
E-7-7-7-7-7-2-2-2-2-2-5-5-5-5-5-----------------|
A-------------------------------7-7-5-5-4-4-5-5-|
D-----------------------------------------------|
G-----------------------------------------------|

Riff 3
E-7-7-7-7-7-2-2-2-2-2-5-5-5-5-5-7-7--------------|
A-----------------------------------5-5-7-7-9-9--|
D------------------------------------------------|
G------------------------------------------------|

Riff 4
E-7-7-7-7-7-7-7-7-2-2-2-2-2-5-5-5-5-5-5-------------|
A---------------------------------------7-7-7-7-7-7-|
D---------------------------------------------------|
G---------------------------------------------------|

Riff 5
E-----------------------|
A-5-7-9-7-7-7-5-7-5-----|
D-------------------5-7-|
G-----------------------|

Riff 6
E-----------|
A-5-7-9-7-7-|
D-----------|
G-----------|

Riff 1 4x (00:03)
Riff 2 1x (00:16)
Riff 3 1x (00:22)
Riff 4 2x (00:28)
Riff 5 2x (00:40)
Riff 6 1x (00:48)
Riff 2 2x (00:53)
Riff 3 2x (01:06)
Riff 5 3x (01:18)
Riff 6 1x (01:30)
Riff 1 4x (01:33)
Riff 2 2x (01:45)
Riff 4 2x (01:58)
Riff 5 3x (02:10)
Riff 6 1x (02:22)
Riff 5 3x (02:26)
Riff 6 1x (02:36)
Riff 1 4x (02:40)

WWW.XUTOS.PT
comments
We did not receive enough feedback on this tab! Please rate:
print report bad tab
1 2 3 4 5
I want to post or [tab]
guest
You may want to rate the tab now too:
select rating
Please do not post tabs as comments. Select "correction" instead!