Oops, an error
Loading. Please wait.
We have an official Halo tab made by UG professional guitarists. Check out the tab »
×
102,545 views 105 this week
2 commentsread comments
1 2 3 4 5
x 58
add to favorites
×
Save as Personal and add changes to this tab that will be seen only by you. Learn more ›
×
You can save this tab as Personal to edit and correct it or add notes. All changes will be seen only by you. Learn more »
launch autoscroll
font size
0
reset
how to read this tab
guitar tuner
edit
Autoscroll
slow
fast
+/-
esc
set tempo
stop
Author
[Intro]

 Played very fast as its originally on Piano

    Q    Q     Q    Q     
e|--9--------------------|
B|------------10---------|
G|-------9----------9----|
D|-----------------------|
A|-----------------------|
E|-----------------------|

    Q    Q     Q    Q     
e|--9--------------------|
B|------------10---------|
G|-------9----------9----|
D|-----------------------|
A|-----------------------|
E|-----------------------|

    Q    Q     Q    Q     
e|--9--------------------|
B|------------10---------|
G|-------9----------9----|
D|-----------------------|
A|-----------------------|
E|-----------------------|

    Q    Q    Q     Q     
e|--9---------7h----9----|
B|-----------------------|
G|-------9---------------|
D|-----------------------|
A|-----------------------|
E|-----------------------|

     Q    Q    Q    Q     
e|--10---------7---------|
B|--------7---------7----|
G|-----------------------|
D|-----------------------|
A|-----------------------|
E|-----------------------|

     Q    Q    Q    Q     
e|--10---------7---------|
B|--------7---------7----|
G|-----------------------|
D|-----------------------|
A|-----------------------|
E|-----------------------|

     Q    Q    Q    Q     
e|--10---------9---------|
B|--------7---------7----|
G|-----------------------|
D|-----------------------|
A|-----------------------|
E|-----------------------|

    Q       Q     Q    Q     
e|--7h----9g7---------------|
B|---------------10----9----|
G|--------------------------|
D|--------------------------|
A|--------------------------|
E|--------------------------|

     Q    Q    Q    Q     
e|-----------------------|
B|--10---------7---------|
G|--------6---------6----|
D|-----------------------|
A|-----------------------|
E|-----------------------|

     Q    Q    Q    Q     
e|-----------------------|
B|--10---------7---------|
G|--------6---------6----|
D|-----------------------|
A|-----------------------|
E|-----------------------|

     Q    Q    Q    Q     
e|-----------------------|
B|--10---------7---------|
G|--------6---------6----|
D|-----------------------|
A|-----------------------|
E|-----------------------|

     Q     Q     Q    Q     
e|-------------------------|
B|--10----12----10----9----|
G|-------------------------|
D|-------------------------|
A|-------------------------|
E|-------------------------|

    Q    Q    Q    Q     
e|----------------------|
B|--7---------7---------|
G|-------7---------7----|
D|----------------------|
A|----------------------|
E|----------------------|

    Q    Q    Q    Q     
e|----------------------|
B|--7---------7---------|
G|-------7---------7----|
D|----------------------|
A|----------------------|
E|----------------------|

     Q    Q    Q    Q     
e|-----------------------|
B|--10---------7---------|
G|--------7---------7----|
D|-----------------------|
A|-----------------------|
E|-----------------------|

     Q     Q     Q    Q                     
e|-------------------------|
B|--10----12----10----9----|
G|-------------------------|
D|-------------------------|
A|-------------------------|
E|-------------------------|


Chords:
 
A                        Bm
Remember those walls I built,
                            F#m
Well baby they're tumbling down, 
                                D
And they didn't even put up a fight,
                          A
They didn't even make a sound.
                         Bm
I found a way to let you in,
                          F#m
But I never really had a doubt. 
                               D
Standing in the light of your halo, 
                A
I got my angel now. 

                      Bm
It's like I've been awakened. 
                       F#m
Every rule I had you breaking. 
                         D
It's the risk that I'm taking. 
                              A
I ain't never gonna shut you out. 

                        Bm
Everywhere I'm looking now, 
                           F#m
I'm surrounded by your embrace. 
                      D
Baby I can see your halo, 
                            A
You know you're my saving grace. 
                              Bm
You're everything I need and more, 
                            F#m
It's written all over your face. 
                      D
Baby I can feel your halo, 
                    A
Pray it won't fade away. 


                 A
I can feel your halo halo halo 
                Bm
I can see your halo halo halo 
                 F#m
I can feel your halo halo halo 
                D
I can see your halo halo halo 

This is up to the chorus and the chords continue with the same progression throughout the song.
Strum pattern - DUUDUUD
Good Luck


NB can also be played with capo on 2nd fret using basic chord shapes.
G  - Instead of A
Am - Instead of Bm
Em - Instead of F#m
C  - Instead of D



************************************

| h  Hammer-on
| g  Grace note
| Q  quarter note

************************************

            
            
Suggest correction
Creating personal tab
Creating personal tab
You can edit any tab online and save it as your Personal.

You can edit, replace or remove any tab part or add personal notes – all changes will be seen only by you.

Personal tabs can be accessed anytime from any device, even offline.
Learn more »
comments
print report bad tab
2 comments total.
+2 reply
AliceM0323 10 Jun 26, 2016 06:43 AM

Incomplete
Incomplete incomplete incomplete incomplete incomplete incomplete incomplete incomplete info about the same thing

0 reply
melchap981 10 Oct 25, 2017 04:12 PM

love it. great song.

guest
You may want to rate the tab now too:
select rating
Wanna post a correction for this tab? Suggest correction